The Used - All That I've Got Chords & Tabs

 

All That I've Got Chords & Tabs

The Used Chords & Tabs

Version: 1 Type: Tab 0 ratings
1 star 2 stars 3 stars 4 stars 5 stars
comments

All That I've Got Tab

Intro:

|---10-----------10------------------------------------|
|-------8-7-8--------8-7-8------5--8-7-8----5--8-7-8---|
|------------------------------------------------------|
|------------------------------------------------------| x2
|------------------------------------------------------|
|------------------------------------------------------|

|--------------------------------------|--------------------------------------|
|--------------------------------------|----------6-6-6-6-4-4-4-4-4-----------|
|----------7-7-7-7-5-5-5-5-7-7-7-7-----|--4-4-4-4-7-7-7-7-5-5-5-5-5-----------|
|--5-5-5-5-7-7-7-7-5-5-5-5-7-7-7-7-----|--5-5-5-5-7-7-7-7-5-5-5-5-5-----------|
|--5-5-5-5-5-5-5-5-3-3-3-3-5-5-5-5-----|--5-5-5-5-5-5-5-5-3-3-3-3-3-----------|
|--3-3-3-3-----------------------------|--3-3-3-3-----------------------------|

Verse 1


|-----3-3~~0----3-3~~0----3-3~~0----3-3~~------|---3-3~~0----3-3~~0---3-3~~0---3-3~~0------------|
|-----3-3~~3----3-3~~3----3-3~~3----3-3~~------|---3-3~~3----3-3~~3---3-3~~3---3-3~~3------------|
|-----0-0~~0----0-0~~0----0-0~~0----0-0~~------|---0-0~~0----0-0~~0---0-0~~0---0-0~~0------------|
|-(5)-2-2~~2----2-2~~2----2-2~~2----2-2~~------|-5-2-2~~2----2-2~~2---2-2~~2---2-2~~2------------|
|-(5)-3-3~~3----3-3~~3----3-3~~3----3-3~~------|-5-3-3~~3----3-3~~3---3-3~~3---3-3~~3------------|
|-(3)------------------------------------------|-3-----------------------------------------------|

|-----3-3~~0----3-3~~0----3-3~~0----3-3~~------|---3-3~~0----3-3~~0---3-3~~0---3-3~~0------------|
|-----3-3~~3----3-3~~3----3-3~~3----3-3~~------|---3-3~~3----3-3~~3---3-3~~3---3-3~~3------------|
|-----0-0~~0----0-0~~0----0-0~~0----0-0~~------|---0-0~~0----0-0~~0---0-0~~0---0-0~~0------------|
|-(5)-2-2~~2----2-2~~2----2-2~~2----2-2~~------|-5-2-2~~2----2-2~~2---2-2~~2---2-2~~2------------|
|-(5)-3-3~~3----3-3~~3----3-3~~3----3-3~~------|-5-3-3~~3----3-3~~3---3-3~~3---3-3~~3------------|
|-(3)------------------------------------------|-3-----------------------------------------------|

Prechorus:

|----------------------------------|
|--8-8-8-8-8-8-8-8-----------------|
|----------------------------------|
|----------------------------------|
|----------------------------------|
|----------------------------------|

Verse 2

|-----3-3-3~~~~---3-3-3~~~~---3-3-3~~~~---3-3-3~~~~--|-----3-3-3~~~~---3-3-3~~~~---3-3-3~~~~---3-3-3~~~~---|
|-----3-3-3~~~~---3-3-3~~~~---3-3-3~~~~---3-3-3~~~~--|-----3-3-3~~~~---3-3-3~~~~---3-3-3~~~~---3-3-3~~~~---|
|-----0-0~~-------0-0~~-------0-0~~-------0-0~~------|-----0-0~~-------0-0~~-------0-0~~-------0-0~~-------|
|-(5)-2-2~~-------2-2~~-------2-2~~-------2-2~~------|-(5)-2-2~~-------2-2~~-------2-2~~-------2-2~~-------|
|-(5)-3-3~~-------3-3~~-------3-3~~-------3-3~~------|-(5)-3-3~~-------3-3~~-------3-3~~-------3-3~~-------|
|-(3)------------------------------------------------|-(3)-------------------------------------------------|

|-----3-3-3~~~~---3-3-3~~~~---3-3-3~~~~---3-3-3~~~~--|-----3-3-3~~~~---3-3-3~~~~---3-3-3~~~~---3-3-3~~~~---|
|-----3-3-3~~~~---3-3-3~~~~---3-3-3~~~~---3-3-3~~~~--|-----3-3-3~~~~---3-3-3~~~~---3-3-3~~~~---3-3-3~~~~---|
|-----0-0~~-------0-0~~-------0-0~~-------0-0~~------|-----0-0~~-------0-0~~-------0-0~~-------0-0~~-------|
|-(5)-2-2~~-------2-2~~-------2-2~~-------2-2~~------|-(5)-2-2~~-------2-2~~-------2-2~~-------2-2~~-------|
|-(5)-3-3~~-------3-3~~-------3-3~~-------3-3~~------|-(5)-3-3~~-------3-3~~-------3-3~~-------3-3~~-------|
|-(3)------------------------------------------------|-(3)-------------------------------------------------|

Chorus:

|---------------------------------------------------------------------|
|---------------------------------------------------------------------|
|----------7-7-7-7-5-5-5-5-7-7-7-7-9-9-9-9-7-7-7-7-5-5-5-5---(4)------|
|--5-5-5-5-7-7-7-7-5-5-5-5-7-7-7-7-9-9-9-9-7-7-7-7-5-5-5-5---(4)------|
|--5-5-5-5-5-5-5-5-3-3-3-3-5-5-5-5-7-7-7-7-5-5-5-5-3-3-3-3---(2)------|
|--3-3-3-3------------------------------------------------------------|

|---------------------------------------------------------------------|
|---------------------------------------------------------------------|
|----------7-7-7-7-5-5-5-5-7-7-7-7-9-9-9-9-7-7-7-7-5-5-5-5-7--(4)(4)--|
|--5-5-5-5-7-7-7-7-5-5-5-5-7-7-7-7-9-9-9-9-7-7-7-7-5-5-5-5-7--(4)(4)--|
|--5-5-5-5-5-5-5-5-3-3-3-3-5-5-5-5-7-7-7-7-5-5-5-5-3-3-3-3-5--(2)(2)--|
|--3-3-3-3------------------------------------------------------------|
[ Tab from: http://www.guitartabs.cc/tabs/t/the_used/all_that_ive_got_tab.html ]
|-----(10)--10---------10---------------------|
|---------------9-8-9-------------------------|
|---------------------------------------------|
|---------------------------------------------|
|---------------------------------------------|
|---------------------------------------------|


Verse:

|-----3-3~~0----3-3~~0----3-3~~0----3-3~~------|---3-3~~0----3-3~~0---3-3~~0---3-3~~0------------|
|-----3-3~~3----3-3~~3----3-3~~3----3-3~~------|---3-3~~3----3-3~~3---3-3~~3---3-3~~3------------|
|-----0-0~~0----0-0~~0----0-0~~0----0-0~~------|---0-0~~0----0-0~~0---0-0~~0---0-0~~0------------|
|-(5)-2-2~~2----2-2~~2----2-2~~2----2-2~~------|-5-2-2~~2----2-2~~2---2-2~~2---2-2~~2------------|
|-(5)-3-3~~3----3-3~~3----3-3~~3----3-3~~------|-5-3-3~~3----3-3~~3---3-3~~3---3-3~~3------------|
|-(3)------------------------------------------|-3-----------------------------------------------|


|--x--x------x--x------x--x------x--x-----|--x--x------x--x------x--x------x--x--------------------|
|--11-11-----11-11-----11-11-----11-11----|--11-11-----11-11-----11-11-----11-11-------------------|
|--12-12-----12-12-----12-12-----12-12----|--12-12-----12-12-----12-12-----12-12-------------------|
|--12-12-----12-12-----12-12-----12-12----|--12-12-----12-12-----12-12-----12-12-------------------|
|--10-10-x-x-10-10-x-x-10-10-x-x-10-10x-x-|--10-10-x-x-10-10-x-x-10-10-x-x-10-10-------------------|
|--10-10-x-x-10-10-x-x-10-10-x-x-10-10x-x-|--10-10-x-x-10-10-x-x-10-10-x-x-10-10-------------------|


Chorus:

|---------------------------------------------------------------------|
|---------------------------------------------------------------------|
|----------7-7-7-7-5-5-5-5-7-7-7-7-9-9-9-9-7-7-7-7-5-5-5-5---(4)------|
|--5-5-5-5-7-7-7-7-5-5-5-5-7-7-7-7-9-9-9-9-7-7-7-7-5-5-5-5---(4)------|
|--5-5-5-5-5-5-5-5-3-3-3-3-5-5-5-5-7-7-7-7-5-5-5-5-3-3-3-3---(2)------|
|--3-3-3-3------------------------------------------------------------|

|---------------------------------------------------------------------|
|---------------------------------------------------------------------|
|----------7-7-7-7-5-5-5-5-7-7-7-7-9-9-9-9-7-7-7-7-5-5-5-5-7--(4)(4)--|
|--5-5-5-5-7-7-7-7-5-5-5-5-7-7-7-7-9-9-9-9-7-7-7-7-5-5-5-5-7--(4)(4)--|
|--5-5-5-5-5-5-5-5-3-3-3-3-5-5-5-5-7-7-7-7-5-5-5-5-3-3-3-3-5--(2)(2)--|
|--3-3-3-3------------------------------------------------------------|

Bridge:

|---------------------------------------------||---10----------10----------------------------|
|---8p9h8p9h8p9h8p9h8p9h8p9h8p9h8p9h8p9h8/6/4-||-------8-7-8-------8-7-8---------------------|
|---------------------------------------------||---------------------------------------------|
|---------------------------------------------||---------------------------------------------|
|---------------------------------------------||---------------------------------------------|
|---------------------------------------------||---------------------------------------------|

Verse/Chorus:

|-----3-3~~0----3-3~~0----3-3~~0----3-3~~------|-----------------------------------------------------|
|-----3-3~~3----3-3~~3----3-3~~3----3-3~~------|-----------------------------------------------------|
|-----0-0~~0----0-0~~0----0-0~~0----0-0~~------|---12-12-12-12-12-12-12-12-12-12-12-12---------------|
|-(5)-2-2~~2----2-2~~2----2-2~~2----2-2~~------|---12-12-12-12-12-12-12-12-12-12-12-12---------------|
|-(5)-3-3~~3----3-3~~3----3-3~~3----3-3~~------|---10-10-10-10-10-10-10-10-10-10-10-10---------------|
|-(3)------------------------------------------|-----------------------------------------------------|

|--------------------------------------------------------------------------------------------|
|--------------------------------------------------------------------------------------------|
|-9-9-9-9-7-7-7-7-5-5-5-5---------7-7-7-7-5-5-5-5-7-7-7-7-9-9-9-9-7-7-7-7-5-5-5-5---(4)------|
|-9-9-9-9-7-7-7-7-5-5-5-5-5-5-5-5-7-7-7-7-5-5-5-5-7-7-7-7-9-9-9-9-7-7-7-7-5-5-5-5---(4)------|
|-7-7-7-7-5-5-5-5-3-3-3-3-5-5-5-5-5-5-5-5-3-3-3-3-5-5-5-5-7-7-7-7-5-5-5-5-3-3-3-3---(2)------|
|-------------------------3-3-3-3------------------------------------------------------------|

Outro:

|-10-----------------10---10------------10-----------------|---------------------------|
|----x-8-7-8-5-8-7-8----8----8--5-8-7-8----8-7-8-7-8-7-8---|---------------------------|
|----------------------------------------------------------|---------------------------|
|----------------------------------------------------------|---------------------------|
|----------------------------------------------------------|---------------------------|
|----------------------------------------------------------|---------------------------|


Comments