The Unlovables - Doot Da Doot Chords & Tabs

 

Doot Da Doot Chords & Tabs

The Unlovables Chords & Tabs

Version: 1 Type: Bass Tab

Doot Da Doot Bass Tab

   
-----------------------------------------------------------------------------
                       The Unlovables - Doot Da Doot
-----------------------------------------------------------------------------

Artist: Unlovables
Website: http://www.theunlovables.com
Song: Doot Da Doot
Albulm: Crush, Boyfriend, Heartbreak
Tabbed by: Zero
Tunning: Standard E (EADG)

Intro/Verse: (i/v.1)
"Doot da doot..."
G|------------------------------------|
D|------------------------------------|
A|-5-5-5-5-5-5-5-5--------------------|
E|------------------2-2-2-/3-3-3-/5-5-|

(i/v.2)
G|------------------------------------|
D|------------------------------------|
A|------------------------------------|
E|-7-7-7-7-7-7-7-7--2-2-2-/3-3-3-/5-5-|

(i/v.3)
"And who'd of thought..."
G|------------------------------------------|
D|------------------------------------------|
A|-5-5-5-5-5-5-5-5--------------------------|
E|------------------7-7--5-5--2-2-2-2-2-2-2-|

Chorus: (c.1) 
"When we met..."
G|----------------------------|
D|----------------------------|
A|---------------5-5----------|
E|-7-7-7--5-5-5-------3-3-3-3-|

(c.2)
"You're the one for me..."
G|------------------|
D|------------------|
A|------------------|
E|-7-7-7-7--5-5-5-5-|

(c.2a : Played the second time)
G|------------------|
D|------------------|
A|------------------|
E|-5-5-5-5--7-7-7-7-|
[ Tab from: http://www.guitartabs.cc/tabs/t/the_unlovables/doot_da_doot_btab.html ]
Bridge: (b.1)
"When I'm feeling..."
G|---------------------------------|
D|---------------------------------|
A|---------------------------------|
E|-7-7-7-7-7-7-7-7-7-7-7-7-7-7-7-7-|

(b.2)
G|----------------------------------|
D|----------------------------------|
A|----------------------------------|
E|-\5-5-5-5-5-5-5-5-5-5-5-5-5-5-5-5-|

(b.3)
G|----------------------------------|
D|----------------------------------|
A|----------------------------------|
E|-\3-3-3-3-3-3-3-3-3-3-3-3-3-3-3-3-|

(b.4)
G|----------------------------------|
D|----------------------------------|
A|----------------------------------|
E|-/5-5-5-5-5-5-5-5-5-5-5-5-5-5-5-5-|

Fill: 
"I can't help but stare..."
G|---------|
D|---------|
A|---------|
E|-5--5-/7-|

Pre-chorus: (pc.1)
"When we met..."
G|-------------------------------------------------|
D|-------------------------------------------------|
A|-7-7-7-7-7-7-7-7---------------------------------|
E|------------------9-9-9-9-9-9-9-9--7-7-7-7-7-7-7-|

Outro-Chorus:  (oc.1)
"Doot da Doot..."
G|---------------------------------|
D|---------------------------------|
A|-------------------7-7-7---------|
E|--9--9--9--\7-7-7---------\5-5-5-|

(oc.2)
G|------------|
D|------------|
A|------------|
E|-9---9---\7-|

Outro:
(o.1)
G|----|
D|----|
A|-7~-|
E|-0~-|

Legend:
| ~ = Vibrato
| / = Slide Up
| \ = Slide Down
| h = Hammer on

=============================================================================