The Undertones - Teenage Kicks Chords & Tabs

 

Teenage Kicks Chords & Tabs

The Undertones Chords & Tabs

Version: 1 Type: Tab 4 ratings
1 star 2 stars 3 stars 4 stars 5 stars
comments

Teenage Kicks Tab

This song rocks!!!!!!!!!!!!!!!

Intro
-------------------------|----|-------------------------|x2
-------------------------|----|-------------------------|
-------------------------|----|-------------------------|
-------------------------|----|-------------------------|
-12-12-12-12-12-12-12-12-|-11-|-10-10-10-10-10-10-10-10-|
-10-10-10-10-10-10-10-10-|-9--|-7--7--7--7--7--7--7--7--|

Verse
-------------------------|----|-------------------------|x2
-------------------------|----|-------------------------|
-------------------------|----|-------------------------|
-------------------------|----|-------------------------|
-12-12-12-12-12-12-12-12-|-11-|-10-10-10-10-10-10-10-10-|
-10-10-10-10-10-10-10-10-|-9--|-7--7--7--7--7--7--7--7--|

Chorus
---|---------------------|---------------------|
---|---------------------|---------------------|
---|---------------------|---------------------|
---|---------------------|---------------------|
-7-|-5-5-5-5-5-5-5-5-5-5-|-7-7-7-7-7-7-7-7-7-7-|
-5-|-3-3-3-3-3-3-3-3-3-3-|-5-5-5-5-5-5-5-5-5-5-|

Verse
-------------------------|----|-------------------------|x2
-------------------------|----|-------------------------|
-------------------------|----|-------------------------|
-------------------------|----|-------------------------|
-12-12-12-12-12-12-12-12-|-11-|-10-10-10-10-10-10-10-10-|
-10-10-10-10-10-10-10-10-|-9--|-7--7--7--7--7--7--7--7--|

Chorus
---|---------------------|---------------------|
---|---------------------|---------------------|
---|---------------------|---------------------|
---|---------------------|---------------------|
-7-|-5-5-5-5-5-5-5-5-5-5-|-7-7-7-7-7-7-7-7-7-7-|
-5-|-3-3-3-3-3-3-3-3-3-3-|-5-5-5-5-5-5-5-5-5-5-|

Verse
-------------------------|----|-------------------------|x2
-------------------------|----|-------------------------|
-------------------------|----|-------------------------|
-------------------------|----|-------------------------|
-12-12-12-12-12-12-12-12-|-11-|-10-10-10-10-10-10-10-10-|
-10-10-10-10-10-10-10-10-|-9--|-7--7--7--7--7--7--7--7--|
[ Tab from: http://www.guitartabs.cc/tabs/t/the_undertones/teenage_kicks_tab.html ]
Chorus
---|---------------------|---------------------|
---|---------------------|---------------------|
---|---------------------|---------------------|
---|---------------------|---------------------|
-7-|-5-5-5-5-5-5-5-5-5-5-|-7-7-7-7-7-7-7-7-7-7-|
-5-|-3-3-3-3-3-3-3-3-3-3-|-5-5-5-5-5-5-5-5-5-5-|

Verse
-------------------------|----|-------------------------|x2
-------------------------|----|-------------------------|
-------------------------|----|-------------------------|
-------------------------|----|-------------------------|
-12-12-12-12-12-12-12-12-|-11-|-10-10-10-10-10-10-10-10-|
-10-10-10-10-10-10-10-10-|-9--|-7--7--7--7--7--7--7--7--|

Chorus
---|---------------------|---------------------|
---|---------------------|---------------------|
---|---------------------|---------------------|
---|---------------------|---------------------|
-7-|-5-5-5-5-5-5-5-5-5-5-|-7-7-7-7-7-7-7-7-7-7-|
-5-|-3-3-3-3-3-3-3-3-3-3-|-5-5-5-5-5-5-5-5-5-5-|

Solo
--------------------------------------|
--------------------10-10-10-10-10-10-|
-------------12-12b-------------------|
----------12--------------------------|
-------12-----------------------------|
-10-10--------------------------------|

--------------------------|
--------------7-7-7-7-7-7-|
---------9-9b-------------|
-------9------------------|
-----9--------------------|
-7-7----------------------|

--------------------------------------|
--------------------10-10-10-10-10-10-|
-------------12-12b-------------------|
----------12--------------------------|
-------12-----------------------------|
-10-10--------------------------------|

--------------------------|
--------------7-7-7-7-7-7-|
---------9-9b-------------|
-------9------------------|
-----9--------------------|
-7-7----------------------|

Chorus
---|---------------------|---------------------|
---|---------------------|---------------------|
---|---------------------|---------------------|
---|---------------------|---------------------|
-7-|-5-5-5-5-5-5-5-5-5-5-|-7-7-7-7-7-7-7-7-7-7-|
-5-|-3-3-3-3-3-3-3-3-3-3-|-5-5-5-5-5-5-5-5-5-5-|

Hope you like the tab i do!!!!



Comments