The Ugly Ducklings - Thoughts Chords & Tabs

 

Thoughts Chords & Tabs

The Ugly Ducklings Chords & Tabs

Version: 1 Type: Tab 0 ratings
1 star 2 stars 3 stars 4 stars 5 stars
comments

Thoughts Tab

                   intro/outro

E----------------------------------------------------------------------E
A----------------------------------------------------------------------A
G----------------------------------------------------------------------G
B----2-----2---------0-----0---------2-----2---------0-------0-------2-B
C--2-----2---------2-----2---------2-----2---------2-------4-------2---G
E0-----0-----0-2-3-----3-----3-2-0-----0-----0-2-3-----0-5-----0-0-----E x2

                   verse  

E----------------------------------------------------------------------E
A--------0-----------------0-----------------0-------------------------A
G------0---0-------------0---0-------------0---0-------------0-------0-G
B----2-------2---------0-------0---------2-------2---------2-------0---B
C--2-----------2-----2-----------2-----2-----------2-----2-------4-----C
E0---------------0-3---------------0-3---------------0-3-------5-------E X2

                 chorus
[ Tab from: http://www.guitartabs.cc/tabs/t/the_ugly_ducklings/thoughts_tab.html ]
E----------------------0-------0-----------------------0-2-0----E
A--------------------3-------3-----------------------2-------2--A
G------0-------0---2-------2-----------0-------0---3-----------3G
B----2-------0---0-------0-----------2-------0---0--------------B
C--2-------2-----------------------2-------2--------------------C x2
E0-------3-----------------------0-------3----------------------E

              Bridge
                   
E-----------------------------------------------------------------------E
A-----------------------------------------------------------------------A
G----2-----2-----0-----0-----2-----2-----0-----0-----2-----2-----2-----2G
B--0-----0-----0-----0-----0-----0-----0-----0-----0-----0-----0-----0--B
c0-----4-----2-----2-----0-----4-----2-----2-----4-----4-----0-----0----C
E-----------------------------------------------------------------------E

E------------------------E
A------------------------A
G-----2-----2-----2-----2G
B---0-----0-----0-----0--B
C-4-----4-----0-----0----C
E------------------------E


order

IntroX2VerseX2BridgeX1chorusX2Versex2BridgeX1ChorusX2VerseX2BridgeX1 OutroX1
                             By Dan Gardiner
Comments