The Trews - Not Ready To Go Chords & Tabs

 

Not Ready To Go Chords & Tabs

The Trews Chords & Tabs

Version: 3 Type: Tab 0 ratings
1 star 2 stars 3 stars 4 stars 5 stars
comments

Not Ready To Go Tab

-----------------------------------------------------------------------------
			  Not Ready To Go - The Trews
-----------------------------------------------------------------------------

Tabbed by: DBE43
Email: DBE43@HOTMAIL.COM

I tabbed this song a while ago and just decided to submit it.  It's my first tab.  The 
tab of this is pretty accurate, but I thought mine was easier to play.I didn't calculate 
timing, so you'll have to listen to the song yourself and figure it out.

Tuning: EADGBe

Intro/Chorus Riff
[ Tab from: http://www.guitartabs.cc/tabs/t/the_trews/not_ready_to_go_tab_ver_3.html ]
e|---------------------------------------------------------------------------|
B|-----2-------2--------------0-2--------------------------------------------|
G|-4-4-4-4-4-4-4-4-4------1-2-----2------------------------------------------|
D|-2-2-2-2-2-2-2-2-2--2-4----------------------------------------------------|
A|---------------------------------------------------------------------------|
E|---------------------------------------------------------------------------|

VERSE)

e|-------------0-0-----------------------------------------------------------|
B|-------------2-2-----------------------------------------------------------|
G|-4-4-4-4-4-4-2-2-----------------------------------------------------------|
D|-2-2-2-2-2-2-2-2-----------------------------------------------------------|
A|-------------0-0-----------------------------------------------------------|
E|---------------------------------------------------------------------------|

Bridge)

e|---------------------------------------------------------------------------|
B|---------------------------------------------------------------------------|
G|-------------2-2-2---------------------------------------------------------|
D|-5-5-5-2-2-2-2-2-2---------------------------------------------------------|
A|-5-5-5-2-2-2-0-0-0---------------------------------------------------------|
E|-3-3-3-0-0-0-0-0-0---------------------------------------------------------|
Comments