The Trews - I Cant Say Chords & Tabs

 

I Cant Say Chords & Tabs

The Trews Chords & Tabs

Version: 1 Type: Tab

I Cant Say Tab

Standard Tuning

I Can't Say by The Trews

Main Riff:
There are at least 3 ways to play this, but this is the way I play it.
[ Tab from: http://www.guitartabs.cc/tabs/t/the_trews/i_cant_say_tab.html ]
]------------------------------------------------------------[
]------------------------------------------------------------[
]------------------------------------------------------------[
]---0-4-0-5-4-0---0-4-0-5-4-0---0-4-0-5-4-0---0-4-0-5-4-0----[
]-5-------------3-------------2-------------1----------------[
]------------------------------------------------------------[

This is pretty much played through the entire song. The only part when it changes are 
4 chords, right before the chorus (where they repeat the main riff):

]-0----3----0----2---[
]-1----0----1----3---[
]-0----0----0----2---[
]-2----0----2----0---[
]-3----2----3--------[
]------3-------------[

This is a great song, it reminds me of Hopeless (off their last CD).