The Trews - Confessions Chords & Tabs

 

Confessions Chords & Tabs

The Trews Chords & Tabs

Version: 1 Type: Tab 0 ratings
1 star 2 stars 3 stars 4 stars 5 stars
comments

Confessions Tab

   
---------------------------------------------------------------------------|
			     CONFESSIONS - The Trews
---------------------------------------------------------------------------|
Tabbed by: Stumaster18
Email: ????

Tuning: Standard Tuning

Intro:
e|---------------------|
B|---------------------|
G|---------------------|
D|---------------------|  x4
A|-7-7--9--2-2-2--9--7-|
E|-5-5--7--0-0-0--7--5-|

1st Verse:
e|------------|
B|------------|
G|------------|
D|-2--7--9--7-|   x8
A|-0--5--7--5-|
E|------------|

1st Chorus:
e|---------------------|
B|---------------------|
G|---------------------|
D|-7-7--9--2-2-2--9--7-|   x4
A|-7-7--9--2-2-2--9--7-|
E|-5-5--7--0-0-0--7--5-|

2nd Verse:
e|------------|
B|------------|
G|------------|
D|-2--7--9--7-|
A|-0--5--7--5-|
E|------------|
[ Tab from: http://www.guitartabs.cc/tabs/t/the_trews/confessions_tab.html ]
2nd Chorus:
e|---------------------|
B|---------------------|
G|---------------------|
D|-7-7--9--2-2-2--9--7-|   x8
A|-7-7--9--0-0-0--9--7-|
E|-5-5--7--0-0-0--7--5-|

Solo: havnt figured out yet.

3rd Verse: Played after solo
e|------------|
B|------------|
G|------------|
D|-2--7--9--7-|
A|-0--5--7--5-|
E|------------|

3rd Chorus:
e|---------------------|
B|---------------------|
G|---------------------|
D|-7-7--9--2-2-2--9--7-|   x8
A|-7-7--9--2-2-2--9--7-|
E|-5-5--7--0-0-0--7--5-|

Outro:
e|---------------------|
B|---------------------|
G|---------------------|
D|-7-7--9--2-2-2--9--7-|   x4
A|-5-7--9--2-2-2--9--5-|
E|-5-5--7--0-0-0--7--5-|


| /  slide up
| \  slide down
| h  hammer-on
| p  pull-off
| ~  vibrato
| +  harmonic
| x  Mute note
============================================================================
Comments