The Tragically Hip - New Orleans Is Sinking Chords & Tabs

 

New Orleans Is Sinking Chords & Tabs

The Tragically Hip Chords & Tabs

Version: 1 Type: Tab 1 rating
1 star 2 stars 3 stars 4 stars 5 stars
comments

New Orleans Is Sinking Tab

New Orleans is Sinking-
The Tragically Hip

E|----------------------------|
B|----------------------------|
G|----------------------------|
D|--------2-----------0--0h2--|
A|-----------2-----2----------|
E|--0--0--------3-------------|

[ Tab from: http://www.guitartabs.cc/tabs/t/the_tragically_hip/new_orleans_is_sinking_tab.html ]
E|----------0-----------------------------------0---------------------|
B|--3p0--0-----3p0----------------------3p0--0-----3p0----------------|
G|------------------4p0--3p0--2p0-----------------------4p0--3p0--2p0-|
D|---------------------------------2p0--------------------------------|
A|--------------------------------------------------------------------| 
E|--------------------------------------------------------------------| 


E|----------0---------------------------------------------------------|
B|--3p0--0-----3p0----------------------------------------------------|
G|------------------4p0--3p0--2p0--4p0--3p0--2p0--2s4--4--4--4--4-----|
D|--------------------------------------------------------------------|
A|--------------------------------------------------------------------|
E|--------------------------------------------------------------------|
Comments