The Ting Tings - Thats Not My Name Chords & Tabs

 

The Ting Tings Chords & Tabs

Version: 1 Type: Tab 0 ratings
1 star 2 stars 3 stars 4 stars 5 stars
comments

Thats Not My Name Tab

The Ting Tings - Thats Not My Name
Its basically the same riff over and oveer with chords for the verses.
 

Verse Chords:   
E-|-0----0---|
B-|-0----5---|
G-|-9----6---|
D-|-9----6---|
A-|-7----7---|
E-|-0----5---|
[ Tab from: http://www.guitartabs.cc/tabs/t/the_ting_tings/thats_not_my_name_tab.html ]
Riff;
E|----------------------------------------------------------------------------------|
B|----------------------------------------------------------------------------------|
G|----------------------------------------------------------------------------------|
D|---9--------9--------9--------9--------7--------7--------7------------------------|
A|---7--------7--------7--------7--------7--------7--------7------------------------|
E|-0---0----0---0----0---0----0---0----5---5----5---5----5---5---0-5-5-5-5--7-7-7-7-|



You have to listen to get the timing.
Any comments? HY.
Comments