The Tender Box - Reload Chords & Tabs

 

Reload Chords & Tabs

The Tender Box Chords & Tabs

Version: 1 Type: Tab 0 ratings
1 star 2 stars 3 stars 4 stars 5 stars
comments

Reload Tab

Lead Guitar
                                               
E||--------|----------------------------------|
B||--------|----------------------------------|
G||--------|-------------2--------------------|
D||--------|-----4---------4----------2---2h4-|
A||--------|-----x--------------0h2/4---4-----|
E||----17/-|--2--2-2h5h2------2---------------|
                                                                     
---------------------------------|----------------------------------|
---------------------------------|----------------------------------|
-------------2-------------------|-------------2--------------------|
-----4---------4----------2---4--|-----4---------4----------2---2h4-|
-----x--------------0h2/4---4----|-----x--------------0h2/4---4-----|
--2--2-2h5h2------2--------------|--2--2-2h5h2------2---------------|
                                                                    
---------------------------------|---------------------------------|
---------------------------------|-------------3---0-----0---------|
-------------2-------------------|-----2/4-2h4---2----2-----4h2----|
-----4---------4----------2---4--|------------------------------4--|
-----x--------------0h2/4---4----|--2------------------------------|
--2--2-2h5h2------2--------------|---------------------------------|
                                                                  
------------------------------|----------------------------------|
-----------5--3/--------------|----------------------------------|
-----------------4r-2-4b2-----|-------------2--------------------|
--0--2/4-4----------------4-2-|-----4---------4----------2---2h4-|
------------------------------|-----x--------------0h2/4---4-----|
------------------------------|--2--2-2h5h2------2---------------|
         
---------------------------------||
---------------------------------||
-------------2-------------------||
-----4---------4----------2---4--||
-----x--------------0h2/4---4----||
--2--2-2h5h2------2--------------||
[ Tab from: http://www.guitartabs.cc/tabs/t/the_tender_box/reload_tab.html ]
Comments