The Swellers - Feet First Chords & Tabs

 

Feet First Chords & Tabs

The Swellers Chords & Tabs

Version: 1 Type: Tab

Feet First Tab

   
-------------------------------------------------------------------------------
			     Feet First- The Swellers
-------------------------------------------------------------------------------
Tabbed by: slickydog
Email: oliverholmesiow@hotmail.com
'
This is my 1st tab go easy.There is a distinct lack of Swellers tabs so finally started 
tabbing! I think most of it is correct, there are some lead guitar variations that i 
have not put in. The tuning is definitely right as i asked Nick Diener himself!
Anyway its a great song of the album ups and downsizing, check it out its awesome.

Tuning:half step down

Intro
e|---------------------------------------------------------|
B|---------------------------------------------------------|
G|---------------------------------------------------------|
D|--------3----------3-----------3------------3------------| X2
A|-----------x8---------x8---------x8---1--------------x8--|
E|-----1---------3-----------5-----------------------------|

e|----------------------------------------------------------------------------------|
B|----------------------------------------------------------------------------------|
G|----3------------3-------2---2---2---2--------------------------------------------|
D|----------x8-------x4-------------------------------------------------------------|
A|----------------------------------------------------------------------------------|
E|---3----------1--------1---1---1---1----------------------------------------------|

Riff 1- ("Dont stop now...") palm mute the first time through.
e|---------------------------------------------------|
B|---------------------------------------------------|
G|---------------------------------------------------|
D|---3----------5-----------7-----------8------------| X4
A|---3--x8------5--x8-------7---x8---- -8- let ring--|
E|---1----------3-----------5-----------6------------|


Lead Guitar part for the intro.....

e|-------------------------------------------------------------|
B|-------------------------------------------------------------|
G|------10-------------9------------7----------9-----------10--|
D|------x----x24-------x--x6------ -x---x4-----x---x1------x---| x1
A|------8--------------7------ -----5----------7-----------8---|
E|-------------------------------------------------------------|

e|-----------------------------------------|
B|-----------------------------------------|
G|-----------------------------------------|
D|---3----------5-----------7-----------8--| x2
A|---3--x8------5--x8-------7---x8---- -8--|
E|---1----------3-----------5-----------6--|
[ Tab from: http://www.guitartabs.cc/tabs/t/the_swellers/feet_first_tab.html ]
(' Don't tell me ')
e|------------------------------------------------------------------------------------|
B|------------------------------------------------------------------------------------|
G|------------------------------------------------------------------------------------|
D|-----5-----------8------------------------------------------------------------------|
A|-----5---x8------8--x8--------------------------------------------------------------|
E|-----3-----------6------------------------------------------------------------------|

Chorus- ' Don't stop now just carry on, carry on ' (these are the chords rhythm is 
easy to work out)
e|-----------------------------------------------------------------------------------|
B|-----------------------------------------------------------------------------------|
G|---10------------------------------------------------------------------------------|
D|---10-------10----------8----------------------------------------------------------| X2
A|----8-------10----------8----------------------------------------------------------|
E|-------------8----------6----------------------------------------------------------|
and youll never know.....
e|--------------------------------------------------------------------------------------|
B|--------------------------------------------------------------------------------------|
G|-----7------10------------------------------------------------------------------------|
D|-----7------10------10---------8------------------------------------------------------|
A|-----5-------8------10---------8------------------------------------------------------|
E|---------------------8---------6------------------------------------------------------|

-Repeat riff 1  ' 21 years now in the making '

Untill ' these are the greatest '

e|------------------------------------------------------------|
B|------------------------------------------------------------|
G|------------------------------------------------------------|
D|----3----------5--------7-x--7-x-7-x-7-------8-x-8-x-8-x-8--|
A|----3--x8------5--x8-- -7-x- 7-x-7-x-7-------8-x-8-x-8-x-8--|
E|----1----------3--------5-x--5-x-5-x-5-------6-x-6-x-6-x-6--|

' and you wont build a ship ' ( again listen to rhythm pattern)

e|---------------------------------------------------------------|
B|---------------------------------------------------------------|
G|---------------------------------------------------------------|
D|---5--------8--------3-------5--------7----------------8-------|
A|---5-x-8----8--x8----3-x8----5--------7---- x8---------8---x8--|
E|---3--------6--------1-------3--------5----------------6-------|

Repeat Chorus.

WOWWOAHAH etc
' Then at least you know when it will end '
e|------------------------------------|
B|------------------------------------|
G|-----7-----------10-----------------|
D|-----7--x8-------10--x8---------10--|
A|-----5------------8-------------10--|
E|--------------------------------8---|

Finis.

Any questions drop me an email.

Ollie





************************************

| /   slide up
| \   slide down
| h   hammer-on
| p   pull-off
| ~   vibrato
| +   harmonic
| x   Mute note
| b   Bend
| pb  Pre-bend
| br  Bend release
| pbr Pre-bend release
| brb Bend release bend

************************************