The Subways - Young For Eternity Chords & Tabs

 

Young For Eternity Chords & Tabs

The Subways Chords & Tabs

Version: 1 Type: Bass Tab

Young For Eternity Bass Tab

   
Tune all strings down one step

Gb-------|
Db-------|
Ab-------|
Eb-0//---

(I find that sliding up to the 15th fret gives the closest sound to the song version on 
c.d)

            X3
Gb-------------|
Db-2-2-2/5-550-|
Ab-------------|
Eb-------------|

            X1
Gb-------------|
Db-------------|
Ab-5-5-50------|
Eb-------3-333-|

            X3
Gb-------------|
Db-2-2-2/5-550-|
Ab-------------|
Eb-------------|

            X1
Gb-------------|
Db-------------|
Ab-5-5-50------|
Eb-------3-333-|

                                  X1
Gb-----------------------------------|
Db---2---2---2---2---2---2---2----2--|
Ab-----------------------------------|
Eb-00-000-000-000-000-000-000-0000-0-|

                                  X2
Gb-----------------------------------|
Db---2---2---2---2---2---2-----------|
Ab--------------------------5555-----|
Eb-00-000-000-000-000-000-0-----3333-|

            X3
Gb-------------|
Db-2-2-2/5-550-|
Ab-------------|
Eb-------------|

            X1
Gb-------------|
Db-------------|
Ab-5-5-50------|
Eb-------3-333-|

            X3
Gb-------------|
Db-2-2-2/5-550-|
Ab-------------|
Eb-------------|

            X1
Gb-------------|
Db-------------|
Ab-5-5-50------|
Eb-------3-333-|
[ Tab from: http://www.guitartabs.cc/tabs/t/the_subways/young_for_eternity_btab.html ]
                                  X2
Gb-----------------------------------|
Db---2---2---2---2---2---2-----------|
Ab--------------------------5555-----|
Eb-00-000-000-000-000-000-0-----3333-|

Bass stops whilst just drums and vocals.
Bass comes back in at 1.04ish

         X1
Gb----------|
Db----------|
Ab-5555-----|
Eb-----3333-|

                                  X1
Gb-----------------------------------|
Db---2---2---2---2---2---2-----------|
Ab--------------------------5555-----|
Eb-00-000-000-000-000-000-0-----3333-|

            X3
Gb-------------|
Db-2-2-2/5-550-|
Ab-------------|
Eb-------------|

            X1
Gb-------------|
Db-------------|
Ab-5-5-50------|
Eb-------3-333-|

            X3
Gb-------------|
Db-2-2-2/5-550-|
Ab-------------|
Eb-------------|

            X1
Gb-------------|
Db-------------|
Ab-5-5-50------|
Eb-------3-333-|

Bass goes silent again, guitar and drums play and bass comes
back in at 1:38ish

                                  X2
Gb-----------------------------------|
Db---2---2---2---2---2---2-----------|
Ab--------------------------5555-----|
Eb-00-000-000-000-000-000-0-----3333-|

                                  X2
Gb-----------------------------------|
Db-----------------------------------|
Ab---2-012---2-012---2-012--5555-----|
Eb-00-0---000-0---000-0---0-----3333-|


Gb---
Db-2~        For a good ending effect play this note and let it ring
Ab---
Eb---