The Subways - With You Chords & Tabs

 

With You Chords & Tabs

The Subways Chords & Tabs

Version: 1 Type: Bass Tab

With You Bass Tab

Great song, Great Band, enjoyable to play

Please rate, hope it helps


No Bass on intro

verse

(When drums come in) "all the time i see your reflection"
G--------------------------------|
D--------------------------------|
A------6-6-6-6-6-6-6-6-6-6-------|
E--------------------------------|

"it ok to feel alone...."
G---------------------------------------------------------------------------------------------|
D--------------------------------------------------------------------55-88-----------------4--|
A----3-3-1-3-3-1-3-3-1-3-3-1-3-3-1-3-3-1-3-3-3-3-5-5-5-5-6-6-6-6-6-6-------6-6-6-6-6-6-8-6----|
E---------------------------------------------------------------------------------------------|

Chorus

G-------------------------------------------------------------------|
D-------------------------------------------------------------------|            X2
A------ --------------6-6-6-6-6-6-6--------------------3-3-3-3-3-3--|
E----4-4-4-4-4-4-----------------------3-3-3-3-3-3------------------|

Preverse

G--------------------------------|
D--------------------------------|
A------6-6-6-6-6-6-6-6-6-6-------|
E--------------------------------|

verse 2
[ Tab from: http://www.guitartabs.cc/tabs/t/the_subways/with_you_btab.html ]
G--------------------------3-0-3-0-----------------------------------------------------------------------|
D-------------------------------------------------------------------------55-88----------------4---------|
A----3-3-1-3-3-1-3-3-1-------------3-3-1-3-3-1-3-3-3-3-5-5-5-5-6-6-6-6-6-6-----6-6-6-6-6-6-8-6-----------|

 x2

Chorus

G---------------------------------------------------------------------------|
D---------------------------------------------------------------------------|
A------ --------------6-6-6-6-6-6-6--------------------3-3-3-3-3-3----------|        X2
E----4-4-4-4-4-4-----------------------3-3-3-3-3-3--------------------------|

Middle 8

G--------------------------3-0-3-0-----------------------------------------------------------------------|
D-------------------------------------------------------------------------55-88----------------4---------|
A----3-3-3-3-3-3-3-3-3-------------3-3-3-3-3-3-3-3-3-3-5-5-5-5-6-6-6-6-6-6-----6-6-6-6-6-6-8-6-----------|
E--------------------------------------------------------------------------------------------------------|

Chorus

G---------------------------------------------------------------------------|
D---------------------------------------------------------------------------|
A------ --------------6-6-6-6-6-6-6--------------------3-3-3-3-3-3----------|        X2
E----4-4-4-4-4-4-----------------------3-3-3-3-3-3--------------------------|

End

G----------------3-0-3-0----------------------------------------------------|
D---------------------------------------------------------------------------|
A---3-3-3-3-3-3-3--------3-3-3-3-3-3-3-5-5-6-- (Let ring) ------------------|
E---------------------------------------------------------------------------|