The Subways - Somewhere Chords & Tabs

 

Somewhere Chords & Tabs

The Subways Chords & Tabs

Version: 1 Type: Bass Tab

Somewhere Bass Tab

   
Tune all strings down 1 step from standard tuning.

Very beginning is just drums. Bass comes in with guitar at 0:03ish

                                        X2
Gb----------------------------------------|
Db----------------------------------------|
Ab-3---------3---------3------------------|
Eb---3-0-0-0---3-0-0-0---3-0-0-0-55503330-|


"Somewhere, a star..."            X4
Gb----------------------------------|
Db----------------------------------|
Ab-5555555555555555-----------------|
Eb-----------------5555555555555555-|

                                        X2
Gb----------------------------------------|
Db----------------------------------------|
Ab-3---------3---------3------------------|
Eb---3-0-0-0---3-0-0-0---3-0-0-0-55503330-|

[ Tab from: http://www.guitartabs.cc/tabs/t/the_subways/somewhere_btab.html ]
"Don't Tear, me down..."          X4
Gb----------------------------------|
Db----------------------------------|
Ab-5555555555555555-----------------|
Eb-----------------5555555555555555-|

                                        X4
Gb----------------------------------------|
Db----------------------------------------|
Ab-3---------3---------3------------------|
Eb---3-0-0-0---3-0-0-0---3-0-0-0-55503330-|

Bass then stops, guitar only.
Bass comes back in at 2:33ish


  "Somewhere..."                  X8
Gb----------------------------------|
Db----------------------------------|
Ab-----------------7777777777777777-|
Eb-8888888888888888-----------------|


                                  X8
Gb----------------------------------|
Db----------------------------------|
Ab-----------------7777777777777777-|
Eb-8888885588888855-----------------|


   X1
Gb---
Db---
Ab---
Eb-8~ Let it ring for best ending

Please Rate