The Subways - Oh Yeah Chords & Tabs

 

Oh Yeah Chords & Tabs

The Subways Chords & Tabs

Version: 3 Type: Tab 0 ratings
1 star 2 stars 3 stars 4 stars 5 stars
comments

Oh Yeah Tab

   
Tabbed By:Danny Lee
Email:fenderbender88@hotmail.com
Tuning: EADGBe

Intro:
  D#        F#    C#
e|------------------|
B|------------------|
G|-8888-11-11-------|
D|-8888-11-11-11-11-|  (x4)
A|-6666-9--9--11-11-|
E|------------9--9--|

Verse:
   D#                              F#
e|------------------------------------------------------------------|
B|------------------------------------------------------------------|
G|-8~--------------8~--------------11111111111111111111111111111111-|
D|-8~--------------8~--------------11111111111111111111111111111111-|
A|-6~--------------6~--------------9-9-9-9-9-9-9-9-9-9-9-9-9-9-9-9--|
E|------------------------------------------------------------------|
Then play intro riff twice over then go back to the F# chord^^^^^^^ 
Then Intro riff again, then

Pre-chorus:
  D# (palm mute all this bit)(theres 64 all together - 8 bars of 8)
e|-----------------------------------------------------------------|
B|-----------------------------------------------------------------|
G|-888888888888888888888888888888888888888888888888888888888888888-|
D|-888888888888888888888888888888888888888888888888888888888888888-|
A|-666666666666666666666666666666666666666666666666666666666666666-|
E|-----------------------------------------------------------------|
[ Tab from: http://www.guitartabs.cc/tabs/t/the_subways/oh_yeah_tab_ver_3.html ]
Chorus
e|---------------------------------|
B|---------------------------------|
G|---------6-----------------------|
D|-----6-8---8-6-------6-------6---|
A|-6-9-----------9-6-9---9-6-9---9-|
E|---------------------------------|

Then intro riff (x4)
Then Verse
Pre-chorus
Chorus
Intro(x4)
Outro:
e|----------------------------------|
B|----------------------------------|
G|-8~--------------8~--------------8|
D|-8~--------------8~--------------8|
A|-6~--------------6~--------------6|
E|----------------------------------|


Lyrics:

Verse 1:
Well everytime i feel your coming round, you're goin down,
You hit the ground with every force it makes no sense or sound.
God Bless your soul girl, They got the whole world.
Im on my way now, I'll get there somehow.

Pre Chorus:
Have you ever seen the light, dont you wonder where i hide?
I will live, Then i will die. I will keep you on my mind!

Chorus:
Its your eyes that make me smile. Oh Yeah, Oh Yeah.
Wasting time, hanging out. Oh Yeah, Oh Yeah.
These teenage years well they dont last. Oh Yeah, Oh Yeah.
These teenage lips they speak to fast. Oh Yeah, Oh Yeah.

Verse 2:
I see the light shining from your eyes, blinding me.
Its like im walking down your street again, im 17.
God Bless your soul girl, They got the whole world.
Im on my way now, I'll get there somehow.

Pre Chorus:
Have you ever seen the light, dont you wonder where i hide?
I will live, Then i will die. I will keep you on my mind!


Chorus:
Its your eyes that make me smile. Oh Yeah, Oh Yeah.
Wasting time, hanging out. Oh Yeah, Oh Yeah.
These teenage years well they dont last. Oh Yeah, Oh Yeah.
These teenage lips they speak to fast. Oh Yeah, Oh Yeah.

I will also do a bass tab later when i can be arsed.
Comments