The Subways - Mary Chords & Tabs

 

Mary Chords & Tabs

The Subways Chords & Tabs

Version: 1 Type: Bass Tab 0 ratings
1 star 2 stars 3 stars 4 stars 5 stars
comments

Mary Bass Tab

Chorus
|---------------------------------------------------------------------------|
|---------------------------------------------------------------------------|
|3-3-3-3/10-10-12-12--3-3-3-3/10-10-12-12-----------------------------------|
|------------------------------------------5-5-5-3-3-0-0--5-5-5-5-3-3-0-0---|

Chorus continued
|---------------------------------------------------------------------------|
|---------------------10-10-12-12-14-12-10----------------------------------|
|3-3-3-3/10-10-12-12----------------------12--------------------------------|
|-------------------------------------------5-5-5-5-3-3-0-0-5-5-5-5-3-3-0-0-|

Chorus continued
|---------------------------|
|---------------------------|
|-5-5-5-5-5-5-5-5-3-3-3-3-3-|
|---------------------------|
[ Tab from: http://www.guitartabs.cc/tabs/t/the_subways/mary_btab.html ]
Verse
|--------------------|x6-------------------------------------------|
|--------------------|---------------------10-10-12-12-14-12-10----|
|-3-3-3-3/10-10-12-12|-3-3-3-3/10-10-12-12----------------------12-|
|--------------------|---------------------------------------------|

|-----------------------------------------------------------------|
|-----------------------------------------------------------------|
|---------------------------------3-3-3-3-3-3-3-3-3-3-3-3-3-3-3-3-|
|-5-5-5-5-5-5-5-5-5-5-5-5-5-5-5-5---------------------------------|

Bridge
|------------------------------x2|-------------------------------x2|
|--------------------------------|---------------------------------|
|-5-5-5-5-5-5-5-5-3-3-3-3-3-3-3-3|-----------------3-3-3-3-3-3-3-3-|
|--------------------------------|-5-5-5-5-5-5-5-5-----------------|

Solo=Chorus

Outro
|-----|
|-----|
|-5/3-|
|-----|
Comments