The Subways - Lines Of Light Chords & Tabs

 

Lines Of Light Chords & Tabs

The Subways Chords & Tabs

Version: 1 Type: Tab 0 ratings
1 star 2 stars 3 stars 4 stars 5 stars
comments

Lines Of Light Tab

   
Artist: The Subways
Song: Lines Of Light
Album: Young For Eternity
Tuning: Standard - E A D G B E
Tabbed By Jack

Intro/Verse
E|-0-0-0-0-0-0-0-0-3-3-3-3-3-3-3-3-2-2-2-2-2-2-2-2-0-0-0-0-0-0-0-0-|
B|-0-0-0-0-0-0-0-0-0-0-0-0-0-0-0-0-3-3-3-3-3-3-3-3-0-0-0-0-0-0-0-0-|
G|-0-0-0-0-0-0-0-0-0-0-0-0-0-0-0-0-2-2-2-2-2-2-2-2-0-0-0-0-0-0-0-0-|
D|-2-2-2-2-2-2-2-2-0-0-0-0-0-0-0-0-0-0-0-0-0-0-0-0-2-2-2-2-2-2-2-2-| x4
A|-2-2-2-2-2-2-2-2-2-2-2-2-2-2-2-2-----------------2-2-2-2-2-2-2-2-|
E|-0-0-0-0-0-0-0-0-3-3-3-3-3-3-3-3-----------------0-0-0-0-0-0-0-0-|
[ Tab from: http://www.guitartabs.cc/tabs/t/the_subways/lines_of_light_tab.html ]
Build Up
E|--------0---------------0---------------0----------0---0---0-0-0-|
B|---------3---------------3---------------3----------3---3----3-3-|
G|----0-----0--0------0-----0--0------0-----0--0----0--0---0---0-0-|
D|---2--2-----2--2---2--2-----2--2---2--2-----2--2-2-----------2-2-|
A|-------------------------------------------------------------2-2-|
E|-0---------------0---------------0---------------------------0-0-|

Chorus
E|-0-0-0-0-0-0-0-0-3-3-3-3-3-3-3-3-0-0-0-0-0-0-0-0-2-2-2-2-2-2-2-2-|
B|-3-3-3-3-3-3-3-3-3-3-3-3-3-3-3-3-1-1-1-1-1-1-1-1-3-3-3-3-3-3-3-3-|
G|-0-0-0-0-0-0-0-0-0-0-0-0-0-0-0-0-2-2-2-2-2-2-2-2-2-2-2-2-2-2-2-2-|
D|-2-2-2-2-2-2-2-2-0-0-0-0-0-0-0-0-2-2-2-2-2-2-2-2-0-0-0-0-0-0-0-0-| x4
A|-2-2-2-2-2-2-2-2-x-x-x-x-x-x-x-x-0-0-0-0-0-0-0-0-----------------|
E|-0-0-0-0-0-0-0-0-3-3-3-3-3-3-3-3---------------------------------|

End On
E|-0~|
B|-0~|
G|-0~|
D|-2~|
A|-2~|
E|-0~|

Any complaints can kiss my ass :P enjoy!
Comments