The Subways - I Want To Hear What You Got To Say Chords & Tabs

 

I Want To Hear What You Got To Say Chords & Tabs

The Subways Chords & Tabs

Version: 1 Type: Tab 0 ratings
1 star 2 stars 3 stars 4 stars 5 stars
comments

I Want To Hear What You Got To Say Tab

Hey this is my first tab and I know itīs not totally correct but anyway...Iīts a great 
by The Subways and this sound pretty okey to me:

INTRO:

E---------------------------|
B---------------------------|
G--66----66----66-----------|
D--66----66----66----77--99-|   x2 as intro.Same riff through the verse...
A--66----66----66----77--99-|
E--------------------55--77-|

...until:
"And every time I see you, you donīt know my..."

E-----------------------------------------------|
B-----------------------------------------------|
G-6-------------------4-------------------------|
D-6--x8---------------4-x8----------------------|
A-6-------------------4-------------------------|
E-----------------------------------------------|

"...name"

E---------------------------|
B---------------------------|
G--66----66----66-----------|
D--66----66----66----77--99-|
A--66----66----66----77--99-|
E--------------------55--77-|

"And every time itīs raining youīre the one to blame"

E----------------------------------------------------|
B----------------------------------------------------|
G-6-------------------------4------------------------|
D-6-x8----------------------4-x8---------------------|
A-6-------------------------4------------------------|
E----------------------------------------------------|


E------------------------------|
B------------------------------|
G---------9-8------------------|
D--666666--------666666-7-9----|  x4           strum the 6:es.
A--666666--------666666--------|
E--666666--------666666--------|

Here comes the part when Charlotte sings and itīs just the same as in the first verse 
that youīre kinda strumming. Youīll figure it out. Itīs quiet simple.

And when Billy sings again:

"And every time I see you, you donīt know my..."
[ Tab from: http://www.guitartabs.cc/tabs/t/the_subways/i_want_to_hear_what_you_got_to_say_tab.html ]
E-----------------------------------------------|
B-----------------------------------------------|
G-----------------------------------------------|
D-6-------------------4-------------------------|
A-6-x8----------------4-x8----------------------|
E-6-------------------4-------------------------|

"..name"
E------------------------------|
B------------------------------|
G---------9-8------------------|
D--666666--------666666-7-9----|
A--666666--------666666--------|
E--666666--------666666--------|

"And now itīs always raining..."

E--------------------------------------|
B--------------------------------------|
G--------------------------------------|
D-9------------------7-----------------|
A-9------------------7-----------------|
E-7------------------5-----------------|


"I wanna hear what you, what you got to say"

E-------------------------------------------|
B-------------------------------------------|
G-------------------------------------------|
D-4-----------------6-----------------------|    Play this 3 times.
A-4-x8--------------6-x8--------------------|
E-4-----------------6-----------------------|

"I wanna hear what you, what you got to say-hey-ey-ey-ey

E-------------------------------------------------------|
B-------------------------------------------------------|
G-------------------------------------------------------|
D-4----------------------------------7----------9-------|
A-4-x8-------------------------------7x8--------9-x8----|
E-4----------------------------------5----------7-------|


End on:


E----------------------------                              ---|
B----------------------------                              ---|
G--66----66----66------------                              -6-|
D--66----66----66----77--99--  x2 and then end on:         -6-|
A--66----66----66----77--99--                              -6-|
E--------------------55--77--                              ---|
Comments