The Stranglers - No More Heroes Chords & Tabs

 

No More Heroes Chords & Tabs

The Stranglers Chords & Tabs

Version: 1 Type: Bass Tab 0 ratings
1 star 2 stars 3 stars 4 stars 5 stars
comments

No More Heroes Bass Tab

Bass Tab - Tabbed by Kinky (LL)


Band - The Stranglers
Song - No More Heroes


STANDARD TUNING (EADG)


Intro (x4)

G|-------------------------------------------| 
D|-------------------------------------------| 
A|---------3-3-3-3---------------------------|          
E|--3--3------------3-3-3--1-1-1-------------| 


1st Verse (x8)

G|-------------------------------------------|
D|-------------------------------------------|   
A|---------3-3-3-3---------------------------|       
E|--3--3------------1-1-1--3-3-3-------------|
	

Chorus (x2)

G|-------------------------------------------|
D|-------------------------------------------| 
A|-1-1-1-1-1-1-1-1-3-3-3-3-3-3-3-3-----------|
E|-------------------------------------------|
            


G|-------------------------------------------|
D|-------------------------------------------|  
A|---1-----------1---------------------------|        
E|-3---3-1--3--3---3-1-----------------------|   


2nd Verse (x4)

G|-------------------------------------------|
D|-------------------------------------------|   
A|---------3-3-3-3---------------------------|       
E|--3--3------------1-1-1--3-3-3-------------|


Chorus (x2)

G|-------------------------------------------|
D|-------------------------------------------| 
A|-1-1-1-1-1-1-1-1-3-3-3-3-3-3-3-3-----------|
E|-------------------------------------------|
            


G|-------------------------------------------|
D|-------------------------------------------|  
A|---1-----------1---------------------------|        
E|-3---3-1--3--3---3-1-----------------------|
	

G|-------------------------------------------| 
D|-------------------------------------------| 
A|---------3-3-3-3---------------------------|          
E|--3--3------------3-3-3--1-1-1-------------|  (x2)

Instrumental

G|-------------------------------------------|
D|-------------------------------------------|  
A|-----------0-0-0-0-1-1-1-1-3-3-3-3---------|       
E|-3-3-3-3-----------------------------------|  (x2)




G|-------------------------------------------|
D|-------------------------------------------|   
A|-----------0-0-0-0-1-1-1-1-0-0-0-0---------|
E|-3-3-3-3-----------------------------------|  (x2)


[ Tab from: http://www.guitartabs.cc/tabs/t/the_stranglers/no_more_heroes_btab.html ]
G|-------------------------------------------|
D|-------------------------------------------|  
A|-----------0-0-0-0-1-1-1-1-----------------|
E|-3-3-3-3---------------------1-1-1-1-------|  (x2)



G|-------------------------------------------| 
D|-------------------------------------------| 
A|---------3-3-3-3---------------------------|          
E|--3--3------------3-3-3--1-1-1-------------|  (x2)	



G|-------------------------------------------|
D|-------------------------------------------|
A|-1-1-1-1-1-1-1-1-3-3-3-3-3-3-3-3-----------| 
E|-------------------------------------------|  (x10)



G|-------------------------------------------| 
D|-------------------------------------------| 
A|---------3-3-3-3---------------------------|          
E|--3--3------------3-3-3--1-1-1-------------|  (x2)


3rd Verse (x4)

G|-------------------------------------------|
D|-------------------------------------------|   
A|---------3-3-3-3---------------------------|       
E|--3--3------------1-1-1--3-3-3-------------|
	

Chorus (x2)

G|-------------------------------------------|
D|-------------------------------------------| 
A|-1-1-1-1-1-1-1-1-3-3-3-3-3-3-3-3-----------|
E|-------------------------------------------|
            


G|-------------------------------------------|
D|-------------------------------------------|  
A|---1-----------1---------------------------|        
E|-3---3-1--3--3---3-1-----------------------| 


G|-------------------------------------------| 
D|-------------------------------------------| 
A|---------3-3-3-3---------------------------|          
E|--3--3------------3-3-3--1-1-1-------------|  (x4)
	

Finale

G|-------------------------------------------|
D|-------------------------------------------|  
A|---1-----------1---------------------------|        
E|-3---3-1--3--3---3-1-----------------------|  (x3)


G|-------------------------------------------|
D|-------------------------------------------|  
A|---1-----------1---------------------------|        
E|-3---3-1--3---3-1--------------------------|  (x5)



I think that's about right, tabbed out long specially to make it easier (for me atleast) as all you have to do is scroll down, no need to figure out the order it all goes in.

Please rate.
Comments