The Stooges - I Wanna Be Your Dog Chords & Tabs

 

I Wanna Be Your Dog Chords & Tabs

The Stooges Chords & Tabs

Version: 3 Type: Tab 0 ratings
1 star 2 stars 3 stars 4 stars 5 stars
comments

I Wanna Be Your Dog Tab

   
-------------------------------------------------------------------------------
			     I WANNA BE YOUR DOG - Stooges
-------------------------------------------------------------------------------


Tabbed by: Six Barrel Shotgun
e-mail: sixbarrelshotgun@hotmail.com
tuning: normal

Verse
e|---------------------------------------------------------------------------|
B|---------------------------------------------------------------------------|
G|---------------------------------------------------------------------------|
D|--12-12-12-12-11-11-11-11--9-9-9-9-9-9-9-9---------------------------------|
A|--10-10-10-10-9--9--9--9---7-7-7-7-7-7-7-7---------------------------------|
E|--10-10-10-10-9-9-9--9---7-7-7-7-7-7-7-7---------------------------------|


Chorus:

e|---------------------------------------------------------------------------|
B|---------------------------------------------------------------------------|
G|---------------------------------------------------------------------------|
D|--12-12-12-12-11-11-11-1111-11-11-11-9-9-9-9------------------------------|
A|--10-10-10-10-9--9--9--9--9-9--9--9--7-7-7-7------------------------------|
E|--10-10-10-10-9-9-9--9-9-9-9--9--7-7-7-7------------------------------| x 3

[ Tab from: http://www.guitartabs.cc/tabs/t/the_stooges/i_wanna_be_your_dog_tab_ver_3.html ]
e|---------------------------------------------------------------------------|
B|---------------------------------------------------------------------------|
G|---------------------------------------------------------------------------|
D|--12-12-12---9-9-9-9-9-7-7-7-4-4-4-4---------------------------------------|
A|--10-10-10---7-7-7-7-7-5-5-5-2-2-2-2---------------------------------------|
E|--10-10-10---7-7-7-7-7-5-5-5-2-2-2-2---------------------------------------|

After chorus:

e|---------------------------------------------------------------------------|
B|---------------------------------------------------------------------------|
G|---------------------------------------------------------------------------|
D|--5---------9--------------------------------------------------------------|
A|--3x16-----7x16----------------------------------------------------------|
E|--3---------7--------------------------------------------------------------|

Then the verse again, just listen to the song and you'll get it.
I wrote this tab because the other on the site were bad. Maybe I'll tab the solo too.


| /  slide up
| \  slide down
| h  hammer-on
| p  pull-off
| ~  vibrato
| +  harmonic
| x  Mute note
===============================================================================
Comments