The Starting Line - Autography Chords & Tabs

 

Autography Chords & Tabs

The Starting Line Chords & Tabs

Version: 1 Type: Tab 0 ratings
1 star 2 stars 3 stars 4 stars 5 stars
comments

Autography Tab

Band:The starting line
Song:Autography
EADGBe Standard Tuning
~ = Let Ring

Intro:
|------------------------------------------------------------------------
|------------------------------------------------------------------------
|------------------------------------------------------------------------
|---5--5--5--5---5--5--5--5---10--10--10--10---10--10--10---x2
|---5--5--5--5---5--5--5--5---10--10--10--10---10--10--10------------
|---3--3--3--3---3--3--3--3----8----8----8---8------8---8---8------------
Verse
|------------------------------------------------------------------------
|------------------------------------------------------------------------
|------------------------------------------------------------------------
|---5--5--5---5--5--5---7--7--7~--10--10--10---10--10--10--------------
|---5--5--5---5--5--5---7--7--7~--10--10--10---10--10--10--------------
|---3--3--3---3--3--3---5--5--5~---8---8---8----8---8---8---------------

|-------------------------------------------------------------------------
|-------------------------------------------------------------------------
|-------------------------------------------------------------------------
|---5--7--9--5--5--7--9--5-------------------------------------------------
|---5--7--9--5--5--7--9--5-------------------------------------------------
|---3--5--7--3--3--5--7--3-------------------------------------------------

|------------------------------------------------------------------------
|------------------------------------------------------------------------
|------------------------------------------------------------------------
|---5--5--5---5--5--5---7--7--7~--10--10--10---10--10--10--------------
|---5--5--5---5--5--5---7--7--7~--10--10--10---10--10--10--------------
|---3--3--3---3--3--3---5--5--5~---8---8---8----8---8---8--------------

|---5--7--9---5--7--9--5-------------------------------------------------
|---5--7--9---5--7--9--5-------------------------------------------------
|---3--5--7---3--5--7--3-------------------------------------------------

Chorus-On the first part of the chorus you want to arpeggiate the chords
|-------------------------------------------------------------------------
|------1--1--1--1-----------------1--1--1--1-------------------------------
|-----2--2--2--2--0--0--0--0--2--2--2--2--------------------------------
|----2--2--2--2--2--2--2--2--3--3--3--3--------------------------------x2
|---0--0--0--0--2--2--2--2--3--3--3--3----------------------------------
|--------------0--0--0--0--0--0--0--0--0--------------------------------- 

Chorus Cont\'d- Just play the intro 
|------------------------------------------------------------------------
|------------------------------------------------------------------------
|------------------------------------------------------------------------
|---5--5--5--5---5--5--5--5---10--10--10--10---10--10--10--10----------x2
|---5--5--5--5---5--5--5--5---10--10--10--10---10--10--10--10----------
|---3--3--3--3---3--3--3--3----8---8---8---8----8---8---8---8-----------
[ Tab from: http://www.guitartabs.cc/tabs/t/the_starting_line/autography_tab.html ]
Chorus Cont\'d- Figure out the strumming pattern.
|---------1----1----1------------------------------------------------
|----1----1----3----0------------------------------------------------
|----0----2----2----0------------------------------------------------
|----2----3---------0------------------------------------------------
|----3----3---------2------------------------------------------------
|---------1---------3------------------------------------------------
Verse
|------------------------------------------------------------------------
|------------------------------------------------------------------------
|------------------------------------------------------------------------
|---5--5--5--5---5--5--5--5---10--10--10--10---10--10--10--10----------x2
|---5--5--5--5---5--5--5--5---10--10--10--10---10--10--10--10----------
|---3--3--3--3---3--3--3--3----8---8---8---8----8---8---8---8-----------
Verse
|------------------------------------------------------------------------
|------------------------------------------------------------------------
|------------------------------------------------------------------------
|---5--5--5---5--5--5---7--7--7~--10--10--10---10--10--10--------------
|---5--5--5---5--5--5---7--7--7~--10--10--10---10--10--10--------------
|---3--3--3---3--3--3---5--5--5~---8---8---8----8---8---8---------------

|-------------------------------------------------------------------------
|-------------------------------------------------------------------------
|-------------------------------------------------------------------------
|---5--7--9---5--7--9--5-------------------------------------------------
|---5--7--9---5--7--9--5-------------------------------------------------
|---3--5--7---3--5--7--3-------------------------------------------------

|------------------------------------------------------------------------
|------------------------------------------------------------------------
|------------------------------------------------------------------------
|---5--5--5---5--5--5---7--7--7~--10--10--10---10--10--10--------------
|---5--5--5---5--5--5---7--7--7~--10--10--10---10--10--10--------------
|---3--3--3---3--3--3---5--5--5~---8---8---8----8---8---8---------------

|-------------------------------------------------------------------------
|-------------------------------------------------------------------------
|-------------------------------------------------------------------------
|---5--7--9---5--7--9--5-------------------------------------------------
|---5--7--9---5--7--9--5-------------------------------------------------
|---3--5--7---3--5--7--3-------------------------------------------------

Chorus
|-------------------------------------------------------------------------
|------1--1--1--1--------1--1--1--1--1--1--1-----------------------------
|-----2--2--2--2--0--0--0--0--2--2--2--2--2------------------------------
|----2--2--2--2--2--2--2--2--3--3--3--3--3-------------------------------x2
|---0--0--0--0--2--2--2--2--3--3--3--3--3--------------------------------
|--------------0--0--0--0--0--0--0--0--0--------------------------------- 

Chorus Cont\'d
|------------------------------------------------------------------------
|------------------------------------------------------------------------
|------------------------------------------------------------------------
|---5--5--5--5---5--5--5--5---10--10--10--10---10--10--10--10----------x2
|---5--5--5--5---5--5--5--5---10--10--10--10---10--10--10--10----------
|---3--3--3--3---3--3--3--3----8---8---8---8----8---8---8---8-----------

Chorus Cont\'d-
|---------1----1----1------------------------------------------------
|----1----1----3----0------------------------------------------------
|----0----2----2----0------------------------------------------------
|----2----3---------0------------------------------------------------
|----3----3---------2------------------------------------------------
|---------1---------3------------------------------------------------
Ending Part
|------------------------------------------------------------------------
|------------------------------------------------------------------------
|------------------------------------------------------------------------
|---5--5--5--5---5--5--5--5---10--10--10--10---10--10--10--10----------x2
|---5--5--5--5---5--5--5--5---10--10--10--10---10--10--10--10----------
|---3--3--3--3---3--3--3--3----8---8---8---8----8---8---8---8-----------

|---------1----1----1------------------------------------------------
|----1----1----3----0------------------------------------------------
|----0----2----2----0------------------------------------------------
|----2----3---------0------------------------------------------------
|----3----3---------2------------------------------------------------
|---------1---------3------------------------------------------------

Thats pretty much it I\'m pretty sure thats its right. Suggestions are welcome. Bostonredsox385@yahoo.com


Comments