The Speaks - High Chords & Tabs

 

High Chords & Tabs

The Speaks Chords & Tabs

Version: 2 Type: Tab 0 ratings
1 star 2 stars 3 stars 4 stars 5 stars
comments

High Tab

   
Song: High
Artist: The Speaks
Album: Life's A Joke
Tabbed By: Gian Azurin
-NR-

Intro/Verse/refrain:
D - A - B - G


Solo sa chorus:
... yeah, yeah...

e|-12-12-12-10-12-10-12-10-12-10-------|
B|-------------------------------10----|
G|-------------------------------------|
D|-------------------------------------|
A|-------------------------------------|
E|-------------------------------------|

e|-12-12-12-10-12-10-12-10-12-10-------|
B|-------------------------------10----|
G|-------------------------------------|
D|-------------------------------------|
A|-------------------------------------|
E|-------------------------------------|

e|--------------12-12-10-12-10---------|
B|-7-7-9-9/10-----------------10-------|
G|-------------------------------------|
D|-------------------------------------|
A|-------------------------------------|
E|-------------------------------------|



Solo: (timing Lang)
[ Tab from: http://www.guitartabs.cc/tabs/t/the_speaks/high_tab_ver_2.html ]
e|--------------------------------------------------------------------|
B|--------------------------------------------------------------------|
G|-5-7-7s9-7-6-7-7s9-7-6-5-5------------------------------------------|
D|---------------------------5h7-7s9-7-5-5--5h7-7s9-7-9-9s11-9-7-5-5--|
A|--------------------------------------------------------------------|
E|--------------------------------------------------------------------|

e|----------------------------------|
B|----------------------------------|
G|-5-7-7s9-7-6-7-7s11-11-12-11-11---|
D|----------------------------------|
A|----------------------------------|
E|----------------------------------|

e|--------------------------------------------|
B|--------------------------------------------|
G|-9h11-11s12-11-9-9-9h11-11s12-11-9s14-14s17-|
D|--------------------------------------------|
A|--------------------------------------------|
E|--------------------------------------------|


- End -
Comments