The Speaks - High Chords & Tabs

 

High Chords & Tabs

The Speaks Chords & Tabs

Version: 1 Type: Tab 2 ratings
1 star 2 stars 3 stars 4 stars 5 stars
comments

High Tab

   
Song : High
Artist : The Speaks
Tabbed by : Ralph Peter Enojo
Legends : / = slide, h = hammer on, p = pull off, etch.

(Intro)2x
D	      A
e|-2-----2-----|-0-----2-0------|
B|---3-----3---|---2-------2----|
G|-----2-----2-|-----2-------2--|
D|-0-----------|----------------|
A|-------------|-0--------------|
E|-------------|----------------|

e|-------2-----|-------------|---|
B|-3-------3---|-3-----3-----|-2-|
G|---4-------4-|---4-----4---|---|
D|-----4-------|-----5-----5-|---|
A|-2-----------|-------------|-0-|
E|-------------|-3-----------|---|

I
D            A

Bm                          G           A

D	       A

Bm    			     G		A

(Chorus)
D		A

	Bm

	G	  A

D	    A

	    Bm

	     G


D  					A
e|----------12----10-10-9-10-9----|----------12----10-10-9-10-9-------------------------|
B|-10-10-10----10--------------10-|-10-10-10----10--------------10----------------------|
G|--------------------------------|-----------------------------------------------------|
D|--------------------------------|-----------------------------------------------------|
A|--------------------------------|-----------------------------------------------------|
E|--------------------------------|-----------------------------------------------------|
   Bm			             G
e|-7-7-7-10-9----10-10-7-10-9----|---------10-9-----------------------------------------|
B|------------10--------------10-|-8-10-12------10--------------------------------------|
G|-------------------------------|------------------------------------------------------|
D|-------------------------------|------------------------------------------------------|
A|-------------------------------|------------------------------------------------------|
E|-------------------------------|------------------------------------------------------|

(repeat intro)
II
D	      A

Bm

G		      A

D	      A

Bm

G		A


(repeat chorus)

(solo)
[ Tab from: http://www.guitartabs.cc/tabs/t/the_speaks/high_tab.html ]
ORIGINAL VERSION=========>
     D            A               Bm        G
e|--------------------------------------------------------------------------------------|
B|-----5-5s7-5--------------------------------------------------------------------------|
G|-1/7---------7-7s9-7-6-7-6-4-6p4---------------6---7-6--------------------------------|
D|---------------------------------7-5-4-4h5-5s7---7-----7------------------------------|
A|--------------------------------------------------------------------------------------|
E|--------------------------------------------------------------------------------------|
     D            A                 Bm             G
e|---------------------------------------------------------------10-9-------------------|
B|-----5-5s7-5---5/10-8-7-8-7--------------------------------10--------10---------------|
G|-1/7---------7--------------9-7h9-9/11-12-7-7h9-9/11-12-7-----------------------------|
D|--------------------------------------------------------------------------------------|
A|--------------------------------------------------------------------------------------|
E|--------------------------------------------------------------------------------------|



ACOUSTIC VERSION=========>
       D			        A		Bm			 G
e|------------------------------------------|-------------------------------------------|
B|-----10-8-7-7-7-10-8-7-7-7-10-8-7-----7---|-----10-8-7-7-7-10-8-7-7-7-10-8-7-----7----|
G|----------------------------------7-9---9-|-7-9------------------------------7-9---7--|
D|------------------------------------------|-------------------------------------------|
A|------------------------------------------|-------------------------------------------|
E|------------------------------------------|-------------------------------------------|

       D			        A		Bm			 G
e|------------------------------------------|-------------------------------------------|
B|-----10-8-7-7-7-10-8-7-7-7-10-8-7-----7---|-----10-8-7-7-7-10-8-7-7-7-10-8-7-----7----|
G|----------------------------------7-9---9-|----------------------------------7-9---7--|
D|------------------------------------------|-------------------------------------------|
A|------------------------------------------|-------------------------------------------|
E|------------------------------------------|-------------------------------------------|

	D
e|--------------------------------------------------------------------------------------|
B|--------------------------------------------------------------------------------------|
G|------7-------------------------------------------------------------------------------|
D|--5h7---------------------------------------------------------------------------------|
A|--------------------------------------------------------------------------------------|
E|--------------------------------------------------------------------------------------|

(Repeat verse 1)
(Repeat chorus) 2x


Comments