The Sounds - Living In America Chords & Tabs

 

Living In America Chords & Tabs

The Sounds Chords & Tabs

Version: 2 Type: Tab 0 ratings
1 star 2 stars 3 stars 4 stars 5 stars
comments

Living In America Tab

The Sounds - Living in America
Album: Living in America

Submitted by: Ignacio Valensi Z.


Intro:
e---------------------------------------------------------------------|
B---4-4-----4-4-----7-7-----7-7-----7-7-----7-7-----6-6-----6-6-------|
G---4-4-----4-4-----7-7-----7-7-----8-8-----8-8-----6-6-----6-6-------|
D---6-6-x-x-6-6-x-x-9-9-x-x-9-9-x-x-9-9-x-x-9-9-x-x-8-8-x-x-8-8-x-x---| x2
A---6-6-x-x-6-6-x-x-9-9-x-x-9-9-x-x-9-9-x-x-9-9-x-x-8-8-x-x-8-8-x-x---|
E---4-4-x-x-4-4-x-x-7-7-x-x-7-7-x-x-7-7-x-x-7-7-x-x-6-6-x-x-6-6-x-x---|


           Teenage pornstars......                   Wake up honey!
e--4-4--4-4---------------------------------------------------------|
B--4-4--4-4------------------------------------------------4-4--4---|
G--4-4--4-4------------------------------------------------6-6--6---|
D--6-6--6-6------------------------------------------------6-6--6---|
A--6-6--6-6------------------------------------------------4-4--4---|
E--4-4--4-4------------------------------------------------4-4--4---|


Chorus:
e---------------------------------------------------------------------|
B---4-4-----4-4-----7-7-----7-7-----7-7-----7-7-----6-6-----6-6-------|
G---4-4-----4-4-----7-7-----7-7-----8-8-----8-8-----6-6-----6-6-------|
D---6-6-x-x-6-6-x-x-9-9-x-x-9-9-x-x-9-9-x-x-9-9-x-x-8-8-x-x-8-8-x-x---| x2
A---6-6-x-x-6-6-x-x-9-9-x-x-9-9-x-x-9-9-x-x-9-9-x-x-8-8-x-x-8-8-x-x---|
E---4-4-x-x-4-4-x-x-7-7-x-x-7-7-x-x-7-7-x-x-7-7-x-x-6-6-x-x-6-6-x-x---|

[ Tab from: http://www.guitartabs.cc/tabs/t/the_sounds/living_in_america_tab_ver_2.html ]
     Pretty as a picture...                           Ooh ooh ooh!
e--4----------------------------------------------------------------|
B--4----------------------------------------------------4-4--4------|
G--4----------------------------------------------------6-6--6------|
D--6----------------------------------------------------6-6--6------|
A--6----------------------------------------------------4-4--4------|
E--4----------------------------------------------------4-4--4------|


Chorus:
e---------------------------------------------------------------------|
B---4-4-----4-4-----7-7-----7-7-----7-7-----7-7-----6-6-----6-6-------|
G---4-4-----4-4-----7-7-----7-7-----8-8-----8-8-----6-6-----6-6-------|
D---6-6-x-x-6-6-x-x-9-9-x-x-9-9-x-x-9-9-x-x-9-9-x-x-8-8-x-x-8-8-x-x---| x2
A---6-6-x-x-6-6-x-x-9-9-x-x-9-9-x-x-9-9-x-x-9-9-x-x-8-8-x-x-8-8-x-x---|
E---4-4-x-x-4-4-x-x-7-7-x-x-7-7-x-x-7-7-x-x-7-7-x-x-6-6-x-x-6-6-x-x---|


 We're not living in America, we're not living in America..
e-----------------------------------------------------------|
B-----------------------------------------------------------|
G--4-4-4-4-4-4-4-4-4/6-6-6-6-6-6-6-6-7-7-7-7-7-7-7-7/11(8)--|
D--6-6-6-6-6-6-6-6-6/8-8-8-8-8-8-8-8-9-9-9-9-9-9-9-9/11(8)--| x2
A--6-6-6-6-6-6-6-6-6/8-8-8-8-8-8-8-8-9-9-9-9-9-9-9-9/11(8)--|
E--4-4-4-4-4-4-4-4-4/6-6-6-6-6-6-6-6-7-7-7-7-7-7-7-7/ 9(8)--|


Chorus:
e---------------------------------------------------------------------|
B---4-4-----4-4-----7-7-----7-7-----7-7-----7-7-----6-6-----6-6-------|
G---4-4-----4-4-----7-7-----7-7-----8-8-----8-8-----6-6-----6-6-------|
D---6-6-x-x-6-6-x-x-9-9-x-x-9-9-x-x-9-9-x-x-9-9-x-x-8-8-x-x-8-8-x-x---| x2
A---6-6-x-x-6-6-x-x-9-9-x-x-9-9-x-x-9-9-x-x-9-9-x-x-8-8-x-x-8-8-x-x---|
E---4-4-x-x-4-4-x-x-7-7-x-x-7-7-x-x-7-7-x-x-7-7-x-x-6-6-x-x-6-6-x-x---|


Outro:  (My Baby!! Sweet Baby!!..)
e-----------------------------------------------------------|
B-----------------------------------------------------------|
G--4-4-4-4-4-4-4-4-4/6-6-6-6-6-6-6-6-7-7-7-7-7-7-7-7/11(8)--|
D--6-6-6-6-6-6-6-6-6/8-8-8-8-8-8-8-8-9-9-9-9-9-9-9-9/11(8)--| x2
A--6-6-6-6-6-6-6-6-6/8-8-8-8-8-8-8-8-9-9-9-9-9-9-9-9/11(8)--|
E--4-4-4-4-4-4-4-4-4/6-6-6-6-6-6-6-6-7-7-7-7-7-7-7-7/ 9(8)--|

   Ha!!
e--4-----|
B--4-----|
G--4-----|  Let it ring..
D--6-----|
A--6-----|
E--4-----|
Comments