The Sounds - Living In America Chords & Tabs

 

Living In America Chords & Tabs

The Sounds Chords & Tabs

Version: 1 Type: Tab 0 ratings
1 star 2 stars 3 stars 4 stars 5 stars
comments

Living In America Tab

   
The Sounds
Maja Ivarsson - vocals 
Felix Rodriguez - guitars 
Johan Bengtsson - bass 
Jesper Anderberg - syntheseizers 
Fredrik Nilsson - drums 

http://www.the-sounds.com/


ReTabbed by: Ramone <> Originally Tabbed by: m0nkie

Standard tuning: eb Bb Gb Db Ab eb
Don't put on too much distortion, makes it sounds dumb

Just made a few minor corrections.  And The Sounds play their songs down one step  ;)
Enjoy,

Play this in the intro and chours:

e|-------------------|
B|-------------------|
G|-------------------|
D|-----------5-5-5-5-|
A|-7-7--3-3--3-3-3-3-|
E|-5-5--1-1----------|

After the intro he plays this:
[ Tab from: http://www.guitartabs.cc/tabs/t/the_sounds/living_in_america_tab.html ]
e|---------|
B|---------|
G|-9-9-9-9-| < Very Slight
D|-7-7-7-7-| <   Bend
A|---------|
E|---------|

In the end they play a bit harder and it goes something like this:

e|----------------------------------------------------------------------|
B|----------------------------------------------------------------------|
G|----------------------------------------------------------------------|
D|----------------------------------------------------------------------|
A|-7-7-7-7-7-7--9-9-9-9-9-9--10-10-10-10-10-10-10--12-12-12-12-12-12--7-|
E|-5-5-5-5-5-5--7-7-7-7-7-7--8--8--8--8--8--8--8---10-10-10-10-10-10--5-|

It's not much guitar in this song so.. 
That's all you need to play it.

For questions or corrections: 
Roman - ramone_ussc@hotmail.com
dreggy_backyardbabies@hotmail.com | ICQ#: 94825596
Comments