The Sonics - Money Chords & Tabs

 

Money Chords & Tabs

The Sonics Chords & Tabs

Version: 1 Type: Tab 0 ratings
1 star 2 stars 3 stars 4 stars 5 stars
comments

Money Tab

Money (That's What I want) - The Sonics


here is the basic verse/riff part of the song.  
the solo is just some little impro over a twelve bar blues in C
I'll post the bass tab later.
                                                       
E||-------------------------|-------------------------|
B||-------------------------|-------------------------|
G||-------------------------|-------------------------|
D||--------------7~---------|-----------7~------------|
A||--7--7--6-----8~---6-----|--6-----6--8~---6--------|
E||--8--8-----8----------8--|-----8-------------8--6--|


                                                                              
-------------------------|-------------------------|-------------------------|
-------------------------|-------------------------|-------------------------|
-------------------------|-------------------------|--------------7~---------|
--------------7~---------|-----------7~------------|--7--7--6-----8~---6-----|
--7--7--6-----8~---6-----|--6-----6--8~---6--------|--8--8-----8----------8--|
--8--8-----8----------8--|-----8-------------8--6--|-------------------------|


                                                                              
-------------------------|-------------------------|-------------------------|
-------------------------|-------------------------|-------------------------|
-----------7~------------|-------------------------|-------------------------|
--6-----6--8~---6--------|--------------7~---------|-----------7~------------|
-----8-------------8--6--|--7--7--6-----8~---6-----|--6-----6--8~---6--------|
-------------------------|--8--8-----8----------8--|-----8-------------8--6--|


                                                                              
-----------3-------3-----|-----------1-------1-----|-------------------------|
-----------3-------3-----|-----------1-------1-----|-------------------------|
-----------4-------4-----|-----------2-------2-----|-------------------------|
-----------5-------5--5--|-----------3-------3--3--|--------------7~---------|
--5--5--5--5----5--5--5--|--3--3--3--3----3--3--3--|--7--7--6-----8~---6-----|
--3--3--3--3----3--3--3--|--1--1--1--1----1--1--1--|--8--8-----8----------8--|

[ Tab from: http://www.guitartabs.cc/tabs/t/the_sonics/money_tab.html ]
                                                                    
-------------------3--3--|--8-----------------|--------------9-----|
-------------------3--3--|--8-----------------|--------------9-----|
-------------4--4--4--4--|--9-----------------|--------------10----|
----5--5--5--5--5--5--5--|--10----------------|--------------9-----|
----5--5--5--5--5--5--5--|--10----------------|--------------11----|
----3--3--3--3--3--3--3--|--8-----------------|--------------9-----|


                                                                  
--8-----------------|------------------|-------------------------|
--8-----------------|------------------|-------------------------|
--9-----------------|------------------|--------------7~---------|
--10----------------|------------------|--7--7--6-----8~---6-----|
--10----------------|------------------|--8--8-----8----------8--|
--8-----------------|------------------|-------------------------|


                                                                              
-------------------------|-------------------------|-------------------------|
-------------------------|-------------------------|-------------------------|
-----------7~------------|-------------------------|-------------------------|
--6-----6--8~---6--------|--------------7~---------|-----------7~------------|
-----8-------------8--6--|--7--7--6-----8~---6-----|--6-----6--8~---6--------|
-------------------------|--8--8-----8----------8--|-----8-------------8--6--|


                                                                              
-----------3-------3-----|-----------1-------1-----|-------------------------|
-----------3-------3-----|-----------1-------1-----|-------------------------|
-----------4-------4-----|-----------2-------2-----|-------------------------|
-----------5-------5--5--|-----------3-------3--3--|--------------7~---------|
--5--5--5--5----5--5--5--|--3--3--3--3----3--3--3--|--7--7--6-----8~---6-----|
--3--3--3--3----3--3--3--|--1--1--1--1----1--1--1--|--8--8-----8----------8--|


                           
-------------------3--3--||
-------------------3--3--||
-------------4--4--4--4--||
----5--5--5--5--5--5--5--||
----5--5--5--5--5--5--5--||
----3--3--3--3--3--3--3--||

Okay, so thats it.  i'd leave my email for comments/corrections but by the time
this gets put up i'll have forgotten i've posted it so yeah, if you have
corrections, post your own more correct tab. 

Tabbed by Tom.
Comments