The Showdown - Dolor Per Proelium Your Name Is Defeat Chords & Tabs

 

Dolor Per Proelium Your Name Is Defeat Chords & Tabs

The Showdown Chords & Tabs

Version: 1 Type: Tab

Dolor Per Proelium Your Name Is Defeat Tab

   
Dolor Per Proelium
[Your name is Defeat]
By: The Showdown
Album: A Chorus of Obliteration

Intro:
E|-----------|
B|-----------|
G|-----------|
D|-000-0-000-|
A|-000-0-000-|
D|-000-0-000-|
PM --- - ---

Verse:
E|--------------------------------------------|
B|--------------------------------------------|
G|--------------------------------------------|
D|-12,--8,--11,--7,-0--5---5-4-3--0-3-0-3-2-1-|
A|------------------0--5---5-4-3--0-3-0-3-2-1-|
D|------------------0----0--------0-3-0-3-2-1-|4x
PM                  -    -        - - - - - -

Interlude:                   |Chorus [Repeats under lead]
E|---------------------------|--------------------------|
B|---------------------------|--------------------------|
G|---------------------------|--------------------------|
D|-0--5---5-4-3--0-3-0-3-2-1-|--------------0-1-0-3-2-1-|
A|-0--5---5-4-3--0-3-0-3-2-1-|-000000000000-0-1-0-3-2-1-|
D|-0----0--------0-3-0-3-2-1-|-000000000000-0-1-0-3-2-1-|
PM -    -        - - - - - -   ------------ - - - - - -

Lead:
E|----------------------------------------|-------------|
B|----------------------------------------|-------------|
G|----------------------------------------|-------------|
D|----------------------------------------|-0-1-0-3-2-1-|
A|-5-4h5p4-\8-7h8p7-\11-11p10h11p10-8-<2x]|-0-1-0-3-2-1-|
D|----------------------------------------|-0-1-0-3-2-1-|
PM                                          - - - - - -

Chorus: 2
E|---------------------------------------------------------|
B|---------------------------------------------------------|
G|---------------------------------------------------------|
D|---------------------------------------------------------|
A|-5,---4,-5,-4,\8,--7,-8,-7,\11,---11,-10,-11,-10,--8,----|
D|---0,------------0,-------------0,---------------0,---0,-|

Solo:
E|-----------|
B|-----------|
G|-----------|
D|-000-0-000-|
A|-000-0-000-|
D|-000-0-000-|Repeats under both solo’s
PM --- - ---

Solo: 1
E|-----------------------------------------------------|
B|--------------------------------------------5-6-8-10-|
G|-\7-5-3-------------------------------3-5-7----------|
D|--------7-5-3-------------------3-5-7----------------|
A|--------------7-5-3-------3-5-7----------------------|
D|--------------------9-7-5----------------------------|
PM        - - - - - - - - - - - - 
[ Tab from: http://www.guitartabs.cc/tabs/t/the_showdown/dolor_per_proelium_your_name_is_defeat_tab.html ]
E|-----------------------------------------------------|
B|-8-10h11-10--15t-10h11-15t-10h11-15t-10h11-15t-10h11-|
G|-----------------------------------------------------|
D|-----------------------------------------------------|
A|-----------------------------------------------------|
D|-----------------------------------------------------|

E|-------------------------------------|
B|-17t-10h11-17t-10h11-18t-10h11-18----|
G|-------------------------------------|
D|-------------------------------------|
A|-------------------------------------|
D|-------------------------------------|

Solo: 2
E|------------------------------------------------|
B|------------------------------------------------|
G|-\7-5-7-9/10-9-10p9h10\12-10-9----10-9-9h10p9/7-|
D|-------------------------------12---------------|
A|------------------------------------------------|
D|------------------------------------------------|2x
PM                               --

E|-------------|
B|-------------|
G|-7-/5-/3-/2--|
D|-------------|
A|-------------|
D|-------------|



Bridge:
E|----------------------------------------------------|
B|----------------------------------------------------|
G|----------------------------------------------------|
D|----------------------------------------------------|
A|-5,-1,-3,-5,-8,-7,-5,-3,--5,-1,-3,-5,-12,-10,-8,-7,-|
D|----------------------------------------------------|2x

Melody:
E|--------------------------------------------------------|
B|--------------------------------------------------------|
G|------10p9h10-12-10-9-10-9----------10-9-10-12-10-9-10*-|
D|-0-12----------------------12-12-12---------------------|
A|--------------------------------------------------------|
D|--------------------------------------------------------|
PM - --                         -- -- 

E|------------------------------------------------------|
B|------------------------------------------------------|
G|-------10p9h10-12-10-9-10-9----12-10-9-10-9-7-9-7-5-7-|
D|-12-12----------------------12------------------------|
A|------------------------------------------------------|
D|------------------------------------------------------|
PM -- --                     

Outro:
E|--------------------------------------|
B|--------------------------------------|
G|--------------------------------------|
D|-7-3-5-7-10-9-7-5--7-3-5-7-14-12-10-9-|
A|-5-1-3-5-8--7-5-3--5-1-3-5-12-10-8--7-|
D|--------------------------------------|

E|-----------|
B|-----------|
G|-----------|
D|-7---9---7-|
A|-5---7---5-|
D|-----------|

Notes:
PM = Palm mute

H  = Hammer on

P  = Pull off

\  = Slide

,  = Tremolo Pick