The Sheer - Something New Chords & Tabs

 

Something New Chords & Tabs

The Sheer Chords & Tabs

Version: 1 Type: Bass Tab 0 ratings
1 star 2 stars 3 stars 4 stars 5 stars
comments

Something New Bass Tab

   
starts after 10 second's

1
G|-------------------------------7--5---------7--5-----|
D|-----7--5---------7--5--------------7-5----------7-5-|
A|----------7-5----------7-5-5~-----------5~-----------|
E|-5~-----------5~-------------------------------------|

2
G|----------------------------------------------------------|
D|-----0-0-2-2-4-4-----0-0-2-2-4-4-3-3-3-3-3-3-3-3-0-0---2~-|
A|-2-2-------------2-2---------------------------------2----|
E|----------------------------------------------------------|

3
G|---------------------------------------|
D|---------------------------------------|
A|-5~~-----5~~-----0-2-0-5~~-----2 (x16--|
E|-----5~~-----5~~-----------5~~---------|
[ Tab from: http://www.guitartabs.cc/tabs/t/the_sheer/something_new_btab.html ]
4
G|--------------------------7~--------7~-|
D|-------7~--------7~--------------------|
A|--------------------5--5-----5--5-5----|
E|-5--5-----5--5-5-----------------------|

5
G|--------------------------------------------------------|
D|-----------0-0-0-0-2-2-2-2-4-4-4-4-3--3--3--3--0-0---2~-|
A|-2-2-2-2-2-----------------------------------------2----|
E|--------------------------------------------------------|

6
G|--------------------|
D|-3~~---0~--0-0-0--0-|
A|-----2--------------|
E|--------------------|

7
G|-------------------------------------------------------|
D|-------------------------------------------------------|
A|-------------------------------------------------------|
E|-1-1-1-1-1-1-1-1-1-1-1-1-1-1-2-2-3-3-3-3-5-5-5-5-5-5-5-|

8
G|----------------------|
D|---0~~~~~~~~~~~~~~~~~-|
A|-2--------------------|
E|----------------------|


patern song
1-2-1-2-1-2-3-1-2-1-2-3-4-5-1-2-6-6-7-1-2-1-2-8
Comments