The Shagn Wagons - Can We Just Be Friends Chords & Tabs

 

Can We Just Be Friends Chords & Tabs

The Shagn Wagons Chords & Tabs

Version: 1 Type: Tab 0 ratings
1 star 2 stars 3 stars 4 stars 5 stars
comments

Can We Just Be Friends Tab

   
this is a new band that im in. i hope we get somewhere and i hope every1 supports us all the way through.we are gonna be a punk band. email me at: bmxfreak48@hotmail.com to tell me what u think:

intro 2(x)
e:--------------------------------------
B:--------------------------------------
G:-9------------------------------------
D:---9-7-6------------------------------
A:---------9-7-6-7-6-9------------------
E:--------------------------------------

second part of intro 2(x)
e:--------------------------------------
B:--------------------------------------
G:-9------------------------------------
D:---9-7-6------------------------------
A:---------9-7-6-7-6--------------------
E:-------------------9------------------

Preverse 2(x)
e:--------------------------------------
B:--------------------------------------
G:-9-9999-------------------------------
D:-9-9999-99999-7-7777-6-66-77----------
A:-7-7777-99999-7-7777-6-66-77----------
E:--------77777-5-5555-4-44-55----------

verse 2(x) we're still workin on the lyrics
e:--------------------------------------
B:--------------------------------------
G:-99999999-----------------------------
D:-99999999-99999999-77777777-6666-7777-
A:-77777777-99999999-77777777-6666-7777-
E:----------77777777-55555555-4444-5555-

Preverse 2(x)
e:--------------------------------------
B:--------------------------------------
G:-9-9999-------------------------------
D:-9-9999-99999-7-7777-6-66-77----------
A:-7-7777-99999-7-7777-6-66-77----------
E:--------77777-5-5555-4-44-55----------

another verse comes in with just the bass. i have the bass tab, but ill do it later.

Chorus 4(x)
e:---------------------------------------
B:---------------------------------------
G:-9999------77777777--------------------
D:-9999-9999-77777777--------------------
A:-7777-9999-55555555--------------------
E:------7777-----------------------------
"whoaaa whoaaaa whoa..."

Preverse 2(x)
e:--------------------------------------
B:--------------------------------------
G:-9-9999-------------------------------
D:-9-9999-99999-7-7777-6-66-77----------
A:-7-7777-99999-7-7777-6-66-77----------
E:--------77777-5-5555-4-44-55----------
[ Tab from: http://www.guitartabs.cc/tabs/t/the_shagn_wagons/can_we_just_be_friends_tab.html ]
Verse 2(x)
e:--------------------------------------
B:--------------------------------------
G:-9-xxxxxxxxxxx-9----------------------
D:-9-xxxxxxxxxxx-9-9-xxxxxxxxxxxx-------
A:-7-xxxxxxxxxxx-7-9-xxxxxxxxxxxx-------
E:-----------------7-xxxxxxxxxxxx--------
        

e:---------------------------------------
B:---------------------------------------
G:---------------------------------------
D:-9-7-xxxxxxxxxxxxx-7-6-xxxx-6-7-xxxxxx-
A:-9-7-xxxxxxxxxxxxx-7-6-xxxx-6-7-xxxxxx-
E:-7-5-xxxxxxxxxxxxx-5-4-xxxx-4-5-xxxxxx-


Chorus 4(x)
e:---------------------------------------
B:---------------------------------------
G:-9999------77777777--------------------
D:-9999-9999-77777777--------------------
A:-7777-9999-55555555--------------------
E:------7777-----------------------------
"whoaaa whoaaaa whoa..."

then a bass solo comes in. after that theres a guitar solo.

e:-4-7-5-4-------------4-7-5-4-------------
B:---------7-5-4h5h4-7---------7-5-4h5h4---
G:---------------------------------------6-
D:-----------------------------------------
A:-----------------------------------------
E:-----------------------------------------

e:-4-7-5-4-------------4-7-5-4-----------------
B:---------7-5-4h5h4h5---------7-5-4p5-0h4h5-7-
G:---------------------------------------------
D:---------------------------------------------
A:---------------------------------------------
E:---------------------------------------------

E:-7-5-4p5p4-2-0h4h5-4-2-0-
B:-------------------------
G:-------------------------
D:-------------------------
A:-------------------------
E:-------------------------

Outro thing 3(x)
e:---------------------------
B:-----------------------9---
G:-----------9---------------
D:-----9-----------9---------
A:-7-7---7-7---7-7---7-7-----
E:---------------------------
   * *   * *   * *   * *


Chorus 4(x)           | on the 4th
e:--------------------|----------------------
B:--------------------|----------------------
G:-9999------77777777-|---6-7-9-----------9--
D:-9999-9999-77777777-|---6-7-9-9-7-6--9--9--
A:-7777-9999-55555555-|---4-5-7-9-7-6--9--7--
E:------7777----------|---------7-5-4--7-----
"whoaaa whoaaaa whoa..."

let it ring...thats it, and we're gonna be big someday! hehe...By Neo man
Comments