The Secret Machines - First Wave Intact Chords & Tabs

 

First Wave Intact Chords & Tabs

The Secret Machines Chords & Tabs

Version: 1 Type: Tab 1 rating
1 star 2 stars 3 stars 4 stars 5 stars
comments

First Wave Intact Tab

   
#----------------------------------PLEASE NOTE---------------------------------#
#This file is the author's own work and represents their interpretation of the #
#song. You may only use this file for private study, scholarship, or research. #
#------------------------------------------------------------------------------#

Artist: The Secret Machines
Song: First Wave Intact
Album: Now Here is Nowhere
Tabbed by Mike (Mikemoody86@yahoo.com)

/=slide
b=bend
r=release bend

Intro Riffs
e|-----------------------------------------|
B|-----------------------------------------|
G|-7/12--12--12--12--12--12--12--12/14--10-|
D|-x-x---x---x---x---x---x---x---x------x--|x3
A|-5/10--10--10--10--10--10--10--10/12--8--|
E|-----------------------------------------|

e|-----------------------------------------------------|
B|-----------------------------------------------------|
G|-7/12--12--12--12--12--12--12--12/14--10-------------|
D|-x-x---x---x---x---x---x---x---x------x---5-5-5--5-5-|x4
A|-5/10--10--10--10--10--10--10--10/12--8---5-5-5--5-5-|
E|------------------------------------------3-3-3--3-3-|

e|------------------------------------------------|
B|------------------------------------------------|
G|-7/12--12--12--12--12--12--12--12/14--15--------|
D|-x-x---x---x---x---x---x---x---x------x---------|
A|-5/10--10--10--10--10--10--10--10/12--13--------|
E|--------------------------------------------15/3|
[ Tab from: http://www.guitartabs.cc/tabs/t/the_secret_machines/first_wave_intact_tab.html ]
Bridge/Chorus Chords
   C  G  F Am Em Bm  D
e|----3--1--0--0--7--2-|
B|-5--0--1--1--0--7--3-|
G|-5--0--2--2--0--7--2-|
D|-5--0--3--2--2--9--0-|
A|-3--2--3--0--2--9----|
E|----3--1-----0--7----|
=========================

=========================

Riff added in with the intro Riffs in later parts of the song
e|------------------------------------------------------------|
B|------------------------------------------12--12--12--12/10-|
G|-7/12--12--12--12--12--12--12--12/14--10--x---x---x---x-----|
D|-x-x---x---x---x---x---x---x---x------x---9---9---9---9/-7--|
A|-5/10--10--10--10--10--10--10--10/12--8---------------------|
E|------------------------------------------------------------|

Second Verse Riffs
e|-----------|---------3-3-|------------10|
B|-------3-3-|-3-5b6r5-----|-8-10b11r10---|
G|-2/4-5-----|-------------|--------------|
D|-----------|-------------|--------------|
A|-----------|-------------|--------------|
E|-----------|-------------|--------------|

Second Bridge/Chorus Riff (He throws this in right after the first time they say "First wave Down")
e|--------------------------|
B|--------------------------|
G|-10/12--12--12--12--12/10-|  
D|-x--x---x---x---x---x-----|x2
A|-8-/10--10--10--10--10/8--|
E|--------------------------|

Second Part of the Second Bridge/Chorus is a bit different
=========================
C     G    D C
First Wave Intact
=========================

The only other real distinct thing is the Chord hit at powerful times such as at the beginning.
I use a G7 chord for it, and it sounds ok. If you dont agree, then a G works.
  G7
e|-3-|
b|-3-|
G|-4-|
D|-3-|
A|-5-|
e|-3-|
Comments