The Script - Breakeven Chords & Tabs

 

The Script Chords & Tabs

Version: 4 Type: Tab 0 ratings
1 star 2 stars 3 stars 4 stars 5 stars
comments

Breakeven Tab

Intro

E|------------------------------------|
B|------------------------------------|
G|----7---7---7---7---3---3---3---3---|
D|------------------------------------| x 2
A|--6---6-----------------------------|
E|----------6---6---1---1---3---3-----|

E|--6--6--6--6--6--6--6--6--5--5--5--6--6--6--6--6---|
B|--6--6--6--6--6--6--6--6--6--6--6--6--6--6--6--6---|
G|---------------------------------------------------|
D|---------------------------------------------------| x 2
A|---------------------------------------------------|
E|---------------------------------------------------|

Verse

E|----------------------------------------------|
B|----------------------------------------------|
G|----3---3---3---3-----3---3---3---3-----------|
D|----------------------------------------------| x 8
A|--------------------1---1---3---3-------------|
E|--3---3---1---1-------------------------------|

I'm still alive but I'm barely breathing
Just prayed to a god that I don't believe in
Cos I got time while she got freedom
Cos when a heart breaks no it don't break even

Her best days will be some of my worst
She finally met a man that's gonna put her first
While I'm wide awake she's no trouble sleeping
Cos when a heart breaks no it don't breakeven...even no

Chorus

E|--6--6--6--6--6--6--6--6--5--5--5--6--6--6--6--6---|
B|--6--6--6--6--6--6--6--6--6--6--6--6--6--6--6--6---|
G|---------------------------------------------------|
D|---------------------------------------------------| x 2
A|---------------------------------------------------|
E|---------------------------------------------------|

E|--8--8--8--6--6--6--6--6--5--5--5--6--6--6--6--6---|
B|--6--6--6--6--6--6--6--6--6--6--6--6--6--6--6--6---|
G|---------------------------------------------------|
D|---------------------------------------------------| x 2
A|---------------------------------------------------|
E|---------------------------------------------------|

What am I suppose to do when the best part of me was always you
What am I suppose to say when I'm all choked up that your ok
I'm falling to pieces yeah
I'm falling to pieces

Verse

E|----------------------------------------------|
B|----------------------------------------------|
G|----3---3---3---3-----3---3---3---3-----------|
D|----------------------------------------------| x 5
A|--------------------1---1---3---3-------------|
E|--3---3---1---1-------------------------------|

They say bad things happen for a reason
But not wise words gonna stop the bleeding
Cos she's moved on while I'm still grieving
Cos when a heart breaks no it don't breakeven...even no

Chorus

E|--6--6--6--6--6--6--6--6--5--5--5--6--6--6--6--6---|
B|--6--6--6--6--6--6--6--6--6--6--6--6--6--6--6--6---|
G|---------------------------------------------------|
D|---------------------------------------------------| x 2
A|---------------------------------------------------|
E|---------------------------------------------------|
[ Tab from: http://www.guitartabs.cc/tabs/t/the_script/breakeven_tab_ver_4.html ]
E|--8--8--8--6--6--6--6--6--5--5--5--6--6--6--6--6---|
B|--6--6--6--6--6--6--6--6--6--6--6--6--6--6--6--6---|
G|---------------------------------------------------|
D|---------------------------------------------------| x 4
A|---------------------------------------------------|
E|---------------------------------------------------|

What am I gonna to do when the best part of me was always you
What am I suppose to say when I'm all choked up that your ok
I'm falling to pieces
I'm falling to pieces
I'm falling to pieces
I'm falling to pieces

(Solo)

E|----------------------------------------------|
B|----------------------------------------------|
G|----3---3---5---5----7---7---7---8--7---------|
D|----------------------------------------------| 
A|-------------------5---5---5------------------|
E|--3---3---5---5-------------------------------|
                                                  x 2
E|----------------------------------------------|
B|--------------------------------6-------------|
G|----3---3---5---5---7---7---7-----------------|
D|----------------------------------------------| 
A|----------------------------------------------|
E|--3---3---5---5---5---5---5-------------------|

E|--6--6--6--6--6--6--6--6------------------|
B|--6--6--6--6--6--6--6--6------------------|
G|------------------------------------------|
D|------------------------------------------| x 2
A|------------------------------------------|
E|------------------------------------------|

You got his heart and my heart and none of the pain
You took your suitcase, I took the blame.
Now I'm tryna make sense of what little remains
Cos you left me with no love and no love to my name.

Verse

E|----------------------------------------------|
B|----------------------------------------------|
G|----3---3---3---3-----3---3---3---3-----------|
D|----------------------------------------------| x 4
A|--------------------1---1---3---3-------------|
E|--3---3---1---1-------------------------------|

I'm still alive but I'm barely breathing
Just pray to a god that I don't believe in
Cos I got time while she got freedom
Cos when a heart breaks no it don't break...
no it dont break no it dont breakeven no

Chorus

E|--6--6--6--6--6--6--6--6--5--5--5--6--6--6--6--6---|
B|--6--6--6--6--6--6--6--6--6--6--6--6--6--6--6--6---|
G|---------------------------------------------------|
D|---------------------------------------------------| x 2
A|---------------------------------------------------|
E|---------------------------------------------------|

E|--8--8--8--6--6--6--6--6--5--5--5--6--6--6--6--6---|
B|--6--6--6--6--6--6--6--6--6--6--6--6--6--6--6--6---|
G|---------------------------------------------------|
D|---------------------------------------------------| x 4
A|---------------------------------------------------|
E|---------------------------------------------------|

What am I gonna to do when the best part of me was always you
What am I suppose to say when I'm all choked up that your ok 
I'm falling to pieces
I'm falling to pieces
I'm falling to pieces
I'm falling to pieces

Outro

E|------------------------------------|
B|------------------------------------|
G|----7---7---7---7---3---3---3---3---|
D|------------------------------------| x 7
A|--6---6-----------------------------|
E|----------6---6---1---1---3---3-----|

Oh it dont breakeven no...oh
it dont breakeven no 
oh it dont breakeven no 
Comments