The Script - Breakeven Chords & Tabs

 

The Script Chords & Tabs

Version: 1 Type: Tab 0 ratings
1 star 2 stars 3 stars 4 stars 5 stars
comments

Breakeven Tab

---------------------------------------------------------------------------
			     Breakeven - The Script
---------------------------------------------------------------------------
Tabbed by: Dark_syclone
Email: martin_0434@hotmail.com


This is such a great song from a great new band from Dublin, Ireland. My favourite song 
the album :P
Tuning: Standard

(Plays Throughout During Chorus + Intro)
e|---------------------------------------------------------------------|
B|----3---3----3---3---3-----------------------------------------------|
G|--3---3--------3---3------3---3--------------------------------------|x2
D|--1-------------------------2------3---3---3-------------------------|
A|-----------1-------------------------5---5---------------------------|
E|------------------------1--------3-----------------------------------|


Then Guitar 2
[ Tab from: http://www.guitartabs.cc/tabs/t/the_script/breakeven_tab.html ]
e|--/7--------------------6--------7-----------------------------------|
B|---------------------------------------------------------------------|
G|---------------------------------------------------------------------|
D|---------------------------------------------------------------------|x1
A|---------------------------------------------------------------------|
E|---------------------------------------------------------------------|

e|--/7------------------9--------7-------------------------------------|
B|---------------------------------------------------------------------|
G|---------------------------------------------------------------------|
D|---------------------------------------------------------------------|x1
A|---------------------------------------------------------------------|
E|---------------------------------------------------------------------|


This sounds much like the intro to me; the closest I could get to it
at least. This repeats throughout the song coming in and out during the
chorus and verses, but mainly in the chorus. Just listen to the song for
when to play this riff.

And changes, additions, suggestions or general things at all just leave a comment please
I WILL read them :) Thanks!
Comments