The Script - Breakeven Chords & Tabs

 

The Script Chords & Tabs

Version: 3 Type: Bass Tab 0 ratings
1 star 2 stars 3 stars 4 stars 5 stars
comments

Breakeven Bass Tab

   
-------------------------------------------------------------------------------
			     The Script - Breakeven
-------------------------------------------------------------------------------

Tabbed By : JasonDJ

Tuning: Standard (EADG)

Guitar plays with Capo on 3, intro/chorus/outro with C G D Em and the verses
are done with Em D G Am7.  Play these notes with their octaves and this is a 
very fun and easy song to play.


Intro/Chorus/Outro:
[ Tab from: http://www.guitartabs.cc/tabs/t/the_script/breakeven_btab_ver_3.html ]
G|----8----8-----------------10-----10------12------12-----------------------|
D|---------------8----8------------------------------------------------------|
A|--6----6-----------------8------8------10-----10---------------------------|
E|-------------6----6--------------------------------------------------------|

Verses:
G|----12-----12----10----10--------------------------------------------------|
D|-----------------------------8----8----10----10----------------------------|
A|-10-----10-----8-----8-----------------------------------------------------|
E|---------------------------6----6----8-----8-------------------------------|


| /  slide up
| \  slide down
| h  hammer-on
| p  pull-off
| ~  vibrato
| +  harmonic
| x  Mute note
===============================================================================
Comments