The Script - Breakeven Chords & Tabs

 

The Script Chords & Tabs

Version: 1 Type: Bass Tab 0 ratings
1 star 2 stars 3 stars 4 stars 5 stars
comments

Breakeven Bass Tab

The script- Breakeven

Tabbed by status Buzzard.

I love playing this with my band it sounds pretty good.

These are the main bass bits. Listen to the song to see how they all fit into the song.


Intro
|-----------------------------|
|-----------------------------| x2
|-6-----------8----10---------|
|-------6---------------------|


1st verse

 |-----------------------|
 |---8--8---8---8--------| x10
 |-----------------------|
 |-6--6---6---6----------|


 2nd 3rd  and 5th verse
 |-----------------------|
 |-----------------------|
 |-10-10--8-----------6--| x4
 |------------6---6------|

[ Tab from: http://www.guitartabs.cc/tabs/t/the_script/breakeven_btab.html ]
  Pre Chorus
 |-----------------------------|
 |-----------------------------| x1
 |-10---8----------------------|
 |----------6----8-------------|


 Chorus
 |----------------------------------|
 |----------------------------------|
 |-6----------8---------10----------|
 |-------6--------------------------|


  4th verse/ Bridge
 |--------------------------------|
 |------12--------10--------------|
 |-10--------8------------6-------|
 |-------------------6------------|

 |----------------------------------------|
 |------12--------10----------------------|
 |-10--------8--------------6--5--6--56--|
 |-------------------6--------------------|

Outro

 |-----------------------------|
 |-----------------------------|
 |-6-----------8----10---------|
 |-------6---------------------|
Comments