The Sam Jones Experience - Staiway Of My Life Chords & Tabs

 

Staiway Of My Life Chords & Tabs

The Sam Jones Experience Chords & Tabs

Version: 1 Type: Tab 0 ratings
1 star 2 stars 3 stars 4 stars 5 stars
comments

Staiway Of My Life Tab

   



4/6 V___________________ 4/6 II_  Fmaj7           G7 Am
e|------5-7-----7-|8-----8-2-----2-|0---------0-----|----------------|
H|----5-----5-----|--5---------3---|--1---1-]---1---|0-1-1-----------|
G|--5---------5---|----5-----2-----|----2---------2-|0-2-2-----------|
D|7-------6-------|5-------4-------|3---------------|----2-----------|
A|----------------|----------------|----------------|--0-0-]-]-0/87-|
E|----------------|----------------|----------------|3---------------|

  4/6 V___________________ 4/6 II_  Fmaj7           G7 Am
e|--------7-----7-|8-----8-2-----2-|0---------0-----|----------------|
H|------5---5-----|--5-------3-----|--1---1-]---1---|0-1-1-----------|
G|----5-------5---|----5-------2---|----2---------2-|0-2-2-----------|
D|--7-----6-------|5-------4-------|3---------------|----2-----------|
A|0---------------|----------------|----------------|--0-0-]-]-]-0-2-|
E|----------------|----------------|----------------|3---------------|
[ Tab from: http://www.guitartabs.cc/tabs/t/the_sam_jones_experience/staiway_of_my_life_tab.html ]
  C       D        Fmaj7            C       G        D/D4
e|------0-2-----2-|0-----0---------|--------3-----3-|3p2-2-2---------|
H|----1-----3-----|--1-----0-------|1-----1---0-----|3---3-3---------|
G|--0---------2---|----2-----2-----|--0---------0---|------2---------|
D|--------0-------|3---------------|----2-----------|0---------------|
A|3---------------|--------0---0-2-|3---------------|--------]-]-0-2-|
E|----------------|----------------|--------3-------|----------------|

  C       D        Fmaj7            C       D        Fmaj7
e|--------2-----2-|0-----0---------|--------------2-|0-0-0-----------|
H|------1---3-----|--1-----0-------|------1-----3---|1-1-1-----------|
G|----0-------2---|----2-----2-----|----0-----2-----|2-2-2-----------|
D|--2-----0-------|3---------------|--2-----0-------|3-3-3-]-]-------|
A|3---------------|------0-----0-2-|3---------------|----------0/87-|
E|----------------|----------------|----------------|----------------|
                                                               rit.
 Am
e|----------------|
H|----------------|
G|2---------------|
D|2---------------|
A|0---------------|
E|----------------|




Comments