The Rocket Summer - Cross My Heart Chords & Tabs

 

Cross My Heart Chords & Tabs

The Rocket Summer Chords & Tabs

Version: 1 Type: Tab 1 rating
1 star 2 stars 3 stars 4 stars 5 stars
comments

Cross My Heart Tab

   
Tuning: Standard (E, A, D, G, B, E)
All of Bryce's (The Rocket Summer)
songs are played on a Telecaster,
so it has that really nice spakly sound.


Legend:
/ - Pickslide up (with distortion)
x - palm mute chord
 "Cross my heart.."
-7--8-7-8--7--8-7-8--7--8-7-8---7-7-5-7-888-5--7-5-7-8--7-5-7-8--7-5-7-8------
-8-10-8-8--8-10-8-8--8-10-8-8---8-8-7-8-888-7--8-7-8-8--8-7-8-8--8-7-8-8------
-7--9-9-9--8--9-9-9--9--9-9-9---9-7-7-7-777-7--7-7-9-9--7-7-9-9--7-7-9-9------
------------------------------------------------------------------------------
------------------------------------------------------------------------------
------------------------------------------------------------------------------
 All instruments come in at the last chord the C or 577.    

-888-5---------7-------7-------7--------------7--------7--------7-------------
-888-7--8-8-10--8-8-10--8-8-10---7-8---8-8-10---8-8-10---8-8-10---7-8---------
-999-7---9-------9-------9--------------9--------9--------9-------------------
------------------------------------------------------------------------------
------------------------------------------------------------------------------
------------------------------------------------------------------------------
 Rhythm guitar              X4 Then go into the verses.                       

-------|7777-5555-7777-8888---------------------------------------------------
-------|8888-7777-8888-8888---------------------------------------------------
-------|7777-7777-9999-9999---------------------------------------------------
-------|----------------------------------------------------------------------
-------|----------------------------------------------------------------------
-------|----------------------------------------------------------------------
 Verse 1 "Do you wanna get away, get in the car we can leave today..."        

-77777777777777-x7-888-88888888-77777777-55555555-8888-8888-8888-888888-------
-88888888888888-x8-888-88888888-88888888-77777777-8888-8888-8888-888888-------
-77777777777777-x7-999-99999999-99999999-77777777-9999-9999-9999-999999-------
------------------------------------------------------------------------------
-----------------------2-3-0-5-----------------------------------2-3-5--------
------------------------------------------------------------------------------
 You need 2 guitars to play this part, and most of the song for that matter.  

-77777777777777-x7-888-88888888-77777777-55555555-8888-8888-8888-888888-------
-88888888888888-x8-888-88888888-88888888-77777777-8888-8888-8888-888888-------
-77777777777777-x7-999-99999999-99999999-77777777-9999-9999-9999-999999-------
------------------------------------------------------------------------------
-----------------------7-9-10-9----------------------------------7-9-10-------
------------------------------------------------------------------------------
 BRIDGE "Man I know we never get things right..."                             
[ Tab from: http://www.guitartabs.cc/tabs/t/the_rocket_summer/cross_my_heart_tab.html ]
-7-5-8--77-5-7-88--7-5-7-8-55-------------------------------------------------
-8-7-8--88-7-8-88--8-7-8-8-75-------------------------------------------------
-9-7-9--99-7-9-99--7-7-9-9-77-------------------------------------------------
------------------------------------------------------------------------------
------------------------------------------------------------------------------
------------------------------------------------------------------------------
 CHORUS                                                     Repeat Bridge     

-7-7-77-7-7-77-5555555-88888888--7-7-77--7-7-77-55555555-88888888-------------
-8-8-88-8-8-88-7777777-88888888--8-8-88--8-8-88-77777777-88888888-------------
-7-7-77-7-7-77-7777777-99999999--7-7-77--7-7-77-77777777-99999999-------------
------------------------------------------------------------------------------
------------------------------------------------------------------------------
------------------------------------------------------------------------------
 After bridge play this                                                       

--------7--------7--------7-------------7--------7--------7-------------------
-8-8-10---8-8-10---8-8-10---7-8--8-8-10---8-8-10---8-8-10---7-8---------------
--9--------9--------9-------------9--------9--------9-------------------------
------------------------------------------------------------------------------
------------------------------------------------------------------------------
------------------------------------------------------------------------------
 "So keep going, till you know when its time, when its right..."              

-7--8-7-8--7--8-7-8-7xxx7-77---88--77-88--7-7-5-88888888-5--------------------
-8-10-8-8--8-10-8-8-8xxx8-88--1010-88-88--8-8-7-88888888-7--------------------
-7--9-9-9--7--9-9-9-7xxx7-77---99--99-99--9-7-7-99999999-7--------------------
------------------------------------------------------------------------------
------------------------------------------------------------------------------
------------------------------------------------------------------------------
 "And I, can hear, the memories in my ears...""...cuz whoa!"        CHORUS    

-7777--8-8-8-8-7777-8888--7777--8-8-8-8-7777-8888-77--8-8-77-8888-5-----------
-8888-10101010-8888-8888--8888-10101010-8888-8888-88-1010-88-8888-7-----------
-7777--9-9-9-9-9999-9999--7777--9-9-9-9-9999-9999-77--9-9-99-9999-7-----------
------------------------------------------------------------------------------
------------------------------------------------------------------------------
------------------------------------------------------------------------------
 and bridge then this    "BA BA BA BA!" Repeat and the song fades out. 

--------7--------7--------7-------------7--7--------------7-------------------
-8-8-10---8-8-10---8-8-10---7-8--8-8-10---8-10-8---8-8-10---7-8---------------
--9--------9--------9-------------9--------------9--9-------------------------
------------------------------------------------------------------------------
------------------------------------------------------------------------------
--------------------------------////////////////------------------------------
                                                                              
That's all, enjoy!
Matt.mrozinski@adelphia.net with questions...
Comments