The Riptides - Mallpunks F Off Chords & Tabs

 

Mallpunks F Off Chords & Tabs

The Riptides Chords & Tabs

Version: 1 Type: Tab 0 ratings
1 star 2 stars 3 stars 4 stars 5 stars
comments

Mallpunks F Off Tab

Band: The Riptides
Song: Mallpunks, Fuck Off
Album: Appetite for Rejection
Label: Goblin Records
Tabbed by: Donny Talent
[ Tab from: http://www.guitartabs.cc/tabs/t/the_riptides/mallpunks_f_off_tab.html ]
INTRO/CHORUS:
e|----------------------------------------------------------------------------|
B|----------------------------------------------------------------------------|
G|-6-----4-----6---6-----4-----6---6-----4------------------------------------|
D|-6-7-2-4-6-2-6---6-7-2-4-6-2-6---6-7-2-4-6-2-7-7-7-7-7-7-7-7-9-9-9-9-9-9-9-9|
A|-4-7-2-2-6-2-4---4-7-2-2-6-2-4---4-7-2-2-6-2-7-7-7-7-7-7-7-7-9-9-9-9-9-9-9-9|
E|---5-0---4-0-------5-0---4-0-------5-0---4-0-5-5-5-5-5-5-5-5-7-7-7-7-7-7-7-7|

VERSE:
e|------------------------------|
B|------------------------------|
G|-6-6-6-6-6-6-6-6--2-4---2-4---|X3
D|-6-6-6-6-6-6-6-6--2-4-2-2-4-2-|
A|-4-4-4-4-4-4-4-4--0-2-2-0-2-2-|
E|----------------------0-----0-|

(on fourth time)
e|-------------------------------------|
B|-------------------------------------|
G|-------------------------------------|
D|-6-6-6-6-6-6-6-6---7-7-7-7---9-9-9-9-|
A|-6-6-6-6-6-6-6-6---7-7-7-7---9-9-9-9-|
E|-4-4-4-4-4-4-4-4---5-5-5-5---7-7-7-7-|

CHORUS X1

Verse X1

CHORUS X1

The End.  Yes, It's just that simple.

Donny Talent: point_blanc99@hotmail.com

Comments