The Refreshments - The Ballad Of Hank Hill Chords & Tabs

 

The Ballad Of Hank Hill Chords & Tabs

The Refreshments Chords & Tabs

Version: 1 Type: Tab 0 ratings
1 star 2 stars 3 stars 4 stars 5 stars
comments

The Ballad Of Hank Hill Tab

   
Intro:  Clean, kinda 3/4 feel

    A           E
e|------0--0--------0--------------------|
B|------2--2--------0--------------------|
G|------2--2--------1--------------------|
D|------2--2--------2--------------------|
A|--0---------------2--------------------|
E|--------------0------------------------|
                        let ring........

Dirty, faster, marching rhythm.

  1   2   3   4    1   2   3   4    1   2   3   4    1   2   3   4
e|----------------|----------------|----------------|-----------------|
B|----------------|----------------|----------------|-----------------|
G|----------------|----------------|----------------|-----------------|
D|----------------|----------------|----------------|-----------------|
A|----------------|0-000-4-2-------|----------------|0-0--------------|
E|0-000-0-4-000-0-|----------------|0-000-0-4-000-0-|----4-4-2-2-4-2--|
[ Tab from: http://www.guitartabs.cc/tabs/t/the_refreshments/the_ballad_of_hank_hill_tab.html ]
  1   2   3   4    1   2   3   4    1   2   3   4    1   2   3   4
e|----------------|----------------|----------------|-----------------|
B|----------------|----------------|----------------|-----------------|
G|----------------|----------------|----------------|----------6-6-6--|
D|----------------|----------------|2-2-------------|----------6-6-6--|
A|----------------|0-000-4-2-------|----4-4-2-2-0-0-|----0-----4-4-4--|
E|0-000-0-4-000-0-|----------------|----------------|4-4---2-0--------|
                                                        ?????  p.m..


  Staccato, eighth note feel        Let ring
  1   2   3   4    1   2   3   4    1   2   3   4    1   2   3   4
e|----------------|----------------|----------------|-----------------|
B|----------------|----------------|----------------|-----------------|
G|6---6---6---6---|----------------|----------------|-----------------|
D|6---6---6---6---|6---6---6---6---|7-7-7777--7-7-7-|9-9-7-7-6-6-4-4--|
A|4---4---4---4---|6---6---6---6---|7-7-7777--7-7-7-|9-9-7-7-6-6-4-4--|
E|----------------|4---4---4---4---|5-5-5555--5-5-5-|7-7-5-5-4-4-2-2--|


  1   2   3   4    1   2   3   4    1   2   3   4    1   2   3   4
e|----------------|----------------|----------------|-----------------|
B|----------------|----------------|----------------|-----------------|
G|----------------|----------------|----------------|-----------------|
D|----------------|----------------|2-2-------------|----------2-2----|
A|----------------|0-000-4-2-------|----4-4-2-2-0-0-|----0-----2-2----|
E|0-000-0-4-000-0-|----------------|----------------|4-4---2---0-0----|
Comments