The Reegans - Listen To Me Chords & Tabs

 

Listen To Me Chords & Tabs

The Reegans Chords & Tabs

Version: 1 Type: Tab 0 ratings
1 star 2 stars 3 stars 4 stars 5 stars
comments

Listen To Me Tab

the narliest song ever main chords G C Em

[ Tab from: http://www.guitartabs.cc/tabs/t/the_reegans/listen_to_me_tab.html ]
----------o------o------o-------o-------o------o------o-----o
-------------1------1-------1-------1-------2------2-----2---
-------------------------------------------------------------
-------------------------------------------------------------  repeat
-------------------------------------------------------------
-------------------------------------------------------------
    G X 5        C X 5       Em X 5 
----3------------o-----------o-------------------------------
----3------------1-----------o-------------------------------
----4------------o-----------o--------------------3-5-3------repeat
----5------------2-----------2----------------3-5------------
----5------------3-----------2-------------------------------
----3------------0-------------------------------------------


CHORUS

G       D       C   -------       G       D      C      REPEAT X2
                    -------
                    ---3^--
                    -------
                    -------
                    -------
Comments