The Redwalls - Love Her Chords & Tabs

 

Love Her Chords & Tabs

The Redwalls Chords & Tabs

Version: 2 Type: Tab

Love Her Tab

   
Love Her - The Redwalls

Tuning: standard
{its quite possible its played in Eb, if anyone knows for sure I'll shift the tab}

Riff 1: Intro

Guitar 1:
e----------3----4-4-4-4-6-4--3-3-3-3-4-3--1-1-1-1-3-1--|
B--4-4-4-4---4-----------------------------------------|
G------------------------------------------------------|
D------------------------------------------------------|
A------------------------------------------------------|
E------------------------------------------------------|


Guitar 2:
        D#             G#              D#             A#
e-----------------4-4-4-4-4-4-4-----------------6-6-6-6-6-6-6-6--|
B--8-8-8-8-8-8-8--4-4-4-4-4-4-4--8-8-8-8-8-8-8--6-6-6-6-6-6-6-6--|
G--8-8-8-8-8-8-8--5-5-5-5-5-5-5--8-8-8-8-8-8-8--7-7-7-7-7-7-7-7--|
D--8-8-8-8-8-8-8--6-6-6-6-6-6-6--8-8-8-8-8-8-8--8-8-8-8-8-8-8-8--|
A--6-6-6-6-6-6-6--6-6-6-6-6-6-6--6-6-6-6-6-6-6--8-8-8-8-8-8-8-8--|
E-----------------4-4-4-4-4-4-4-----------------6-6-6-6-6-6-6-6--|

Verse:

Guitar 1:

e--------------------------------------------------------------------------------------------------------|
B--------------------------------------------------------------------------------------------------------|
G--------------------------------------------------------------------------------------------------------|
D--5----6----5--------5----6----5-----------5-6-5-6-6-8-6--5-----------5-6-5-6-6-8-6-5-------------------|
A----6----6----6--5-----6----6----6--5----6------------------6--5----6----------------6------------------|
E-------------------6------------------6--------------------------6---------------------6-6-6-6-6-6-6-6--|


Guitar 2:
    D#      G#     D#     A#     D#     G#     D#     A#    D#    G#    D#    A#
e---------4-4-4---------6-6-6---------4-4-4---------6-6-6---------4-----------6-----|
B--8-8-8--4-4-4--8-8-8--6-6-6--8-8-8--4-4-4--8-8-8--6-6-6---8-----4-----8-----6-----|
G--8-8-8--5-5-5--8-8-8--7-7-7--8-8-8--5-5-5--8-8-8--7-7-7---8-----5-----8-----7-----|
D--8-8-8--6-6-6--8-8-8--8-8-8--8-8-8--6-6-6--8-8-8--8-8-8---8-x8--6-x8--8-x8--8-x8--|
A--6-6-6--6-6-6--6-6-6--8-8-8--6-6-6--6-6-6--6-6-6--8-8-8---6-----6-----6-----8-----|
E---------4-4-4---------6-6-6---------4-4-4---------6-6-6---------4-----------6-----|
                                                    ^ ^ ^   {      Play twice      }
                                             [playing varies here]
Prechorus:

Guiatar 1:
[ Tab from: http://www.guitartabs.cc/tabs/t/the_redwalls/love_her_tab_ver_2.html ]
e---------------------------------------------------------------------|
B--1-1---1-1---1-1---1---1-4-----1-1----1-1---1-1---1---------1-4-1-4-|
G------3-----3-----3---3--------------3-----3-----3---3-0-------------|
D---------------------------------------------------------1-----------|
A---------------------------------------------------------------------|
E---------------------------------------------------------------------|
                                x2

Guitar 2:

             C                      D#               D#
e--------------------------------------------------------------|
B--5--5--5--5--5--5--5--5--5--8-8-8-8-8-8-8-8--8-8-8-8-8-8-8-8-|
G--5--5--5--5--5--5--5--5--5--8-8-8-8-8-8-8-8--8-8-8-8-8-8-8-8-|
D--5--5--5--5--5--5--5--5--5--8-8-8-8-8-8-8-8--8-8-8-8-8-8-8-8-|
A--3--3--3--3--3--3--3--3--3--6-6-6-6-6-6-6-6--6-6-6-6-6-6-6-6-|
E--------------------------------------------------------------|


Chorus:

Guitar 1:

e--3-1----3-1---1-1-1----3-1----3-1---1-1-1----------3-1----|
B------4------4--------4-----4------4-------4--4-4-4-----4--|
G-----------------------------------------------------------|
D-----------------------------------------------------------|
A-----------------------------------------------------------|
E-----------------------------------------------------------|

e---3-1----1-1-1-------1-1-1---3-1---4-4-4-1-------4-4-4-3-1--|
B--------4-------4-1-4-------4-----4---------4-4-4------------|
G-------------------------------------------------------------|
D-------------------------------------------------------------|
A-------------------------------------------------------------|
E-------------------------------------------------------------|

e------------------------------------|
B--4-4-4-4-3-3-3-3-3--4-4-3-3-1-1----|
G---------------------------------3--|
D------------------------------------|
A------------------------------------|
E------------------------------------|


Guitar 2:

e-----------------------------------------------------------------------------------------------------------|
B-----------------------------------------------------------------------------------------------------------|
G-----------------------------------------------------------------------------------------------------------|
D-----------------------------------------------------------------------------------------------------------|
A--6-6-6-6-6-6-6-6-6-6-6-6-6-6-6-6------10-8-6-6-6-6-6-6-6-6-10-8-6-6-6-6-6-6-6--8-8-8-8-8-8-8-10-10-10-10--|
E-----------------------------------------------------------------------------------------------------------|
   {played through most or chorus}               {listen for in second half of chorus}

I'll put the outro up soon.
                            -Rob

Send Corrections to TakeAwaysmusic@yahoo.com