The Red Sun Band - Got No Money Chords & Tabs

 

Got No Money Chords & Tabs

The Red Sun Band Chords & Tabs

Version: 1 Type: Tab 0 ratings
1 star 2 stars 3 stars 4 stars 5 stars
comments

Got No Money Tab

   
----------------------------------------------------------------------------
	              Got No Money - The Red Sun Band
----------------------------------------------------------------------------
Tabbed by:Kat
Email: rock_freeek@hotmail.com

Tuning:
intro/ verses:
e|-------------------------------------------------------------------------|
B|-------------------------------------------------------------------------|
G|----2---2---2---2----5--5------------------------------------------------|
D|--2---2---2---2------5--5------------------------------------------------|
A|---------------------3--3------------------------------------------------|
E|-------------------------------------------------------------------------|
[ Tab from: http://www.guitartabs.cc/tabs/t/the_red_sun_band/got_no_money_tab.html ]
e|-------------------------------------------------------------------------|
B|---------------------5-5-7-7---------------------------------------------|
G|----2---2---2---2----5-5-7-7---------------------------------------------|
D|--2---2---2---2------3-3-5-5---------------------------------------------|
A|-------------------------------------------------------------------------|
E|-------------------------------------------------------------------------|

chorus:

e|-------------------------------------------------------------------------|
B|--1-1-1-1-----------------5-5-5-5----------------------------------------|
G|--2-2-2-2-----------------3-3-3-3----------------------------------------|
D|--2-2-2-2--5-5-5-5-9-9-9-9-----------------------------------------------|
A|-----------3-3-3-3-7-7-7-7-----------------------------------------------|
E|-------------------------------------------------------------------------|

this is how it ends:
e|-------------------------------------------------------------------------|
B|-------------------------------------------------------------------------|
G|----2---2---2---2----5--5-x----------------------------------------------|
D|--2---2---2---2------5--5-x----------------------------------------------|
A|---------------------3--3-x----------------------------------------------|
E|-------------------------------------------------------------------------|

=)

| /  slide up
| \  slide down
| h  hammer-on
| p  pull-off
| ~  vibrato
| +  harmonic
| x  Mute note
============================================================================
Comments