The Red Jumpsuit Apparatus - Face Down Chords & Tabs

 

Face Down Chords & Tabs

The Red Jumpsuit Apparatus Chords & Tabs

Version: 1 Type: Tab

Face Down Tab

   
Can't believe there was no tabs for this band. So with this song being one of my 
from them i'm making my first tab for it. Its pretty acurate.

Tunning-Drop "D"
D----
A----
D----
G----
B----
A----

~Intro~/verse

5-----1-----x-----3----8-------|
5-----1-----1-----3----8-------|
5-----1-----3-----3----8-------|      (repeat)
5-----1-----3-----3----8-------|
5-----1-----x-----3----8-------|
5-----1-----x-----3----8-------|
[ Tab from: http://www.guitartabs.cc/tabs/t/the_red_jumpsuit_apparatus/face_down_tab.html ]
~Chorus~
Guitar 1
Do you.. When...  Do you.. As she falls to the ground
5-5-5-5--1-1-1-1--8-8-8-8--3-3-3-3--1-3-5------|
5-5-5-5--1-1-1-1--8-8-8-8--3-3-3-3--1-3-5------|
5-5-5-5--1-1-1-1--8-8-8-8--3-3-3-3--1-3-5------|      (x2)
5-5-5-5--1-1-1-1--8-8-8-8--3-3-3-3--1-3-5------|
5-5-5-5--1-1-1-1--8-8-8-8--3-3-3-3--1-3-5------|
5-5-5-5--1-1-1-1--8-8-8-8--3-3-3-3--1-3-5------|

Guitar 2
------------------------|
------------------------|
------------------------|      (x2)
--10------10------------|
11--11--11--------------|
------13-----15-13------|

~Bridge~
Guitar 1
(Play Chorus)

Guitar 2
---------------------------------------------|
---------------------------------------------|
------------------------8-8-10-10------------|
8-7-8-77777-8-7-8-77777-----------7-7-10-8-7-|  (x2)
---------------------------------------------|
---------------------------------------------|