The Red Jumpsuit Apparatus - Damn Regret Chords & Tabs

 

Damn Regret Chords & Tabs

The Red Jumpsuit Apparatus Chords & Tabs

Version: 3 Type: Bass Tab

Damn Regret Bass Tab

--------------------------------------------------------------------

              Damn Regret - The Red Jumpsuit Apparatus

--------------------------------------------------------------------

Tabbed By: Austen Cheah
e-mail: atherkaii@ymail.com

Tuning: Drop D

Note: Every number or dash below represents a 16th note, also known
      as a semi-quaver. As this is a tab, it would be inconvenient
      to list the time value of every note. Please do listen to the
      original song in order to familiarize yourself with the song.

Intro
=====

G|-----------------------------------------------------------------|
D|-----------------------------------------------------------------|
A|-----------------00000---------------------------2-2-2-0---0-020-|
D|-00000---------------------------55555---------------------------|

G|---------------------------------------------------------|
D|---------------------------------------------------------|
A|-----------------00000---------------------------2-2-2-0-|
D|-00000---------------------------55555-------------------|

Verse
=====

G|-----------------------------------------------------------|
D|-----------------------------------------------------------|
A|-5-5-5-5-5-5-5-5-0-0-0-0-0-0-0-0---------------------------|
D|---------------------------------5-5-5-5-5-5-5-5-4-------5-|
[x2]

Pre-Chorus
==========

G|----------------------------------------------------------|
D|----------------------------------------------------------|
A|---------------------------------2-2---0---0-0-0--------0-|
D|-2-2---2---2-4-4-5-5---5---5-5-5-----------------5-5------|

Chorus
======

G|-----------------------------------------------------------------|
D|-----------------------------------------------------------------|
A|-----------------00000---------------------------2-2-2-0---0-020-|
D|-00000---------------------------55555---------------------------|

G|---------------------------------------------------------|
D|---------------------------------------------------------|
A|-----------------00000---------------------------2-2-2-0-|
D|-00000---------------------------55555-------------------|

Verse
=====
[ Tab from: http://www.guitartabs.cc/tabs/t/the_red_jumpsuit_apparatus/damn_regret_btab_ver_3.html ]
G|-----------------------------------------------------------|
D|-----------------------------------------------------------|
A|-5-5-5-5-5-5-5-5-0-0-0-0-0-0-0-0---------------------------|
D|---------------------------------5-5-5-5-5-5-5-5-4-------5-|
[x2]

Pre-Chorus
==========

G|--------------------------------------------------------------|
D|--------------------------------------------------------------|
A|---------------------------------2-2---0---0-0-0--------0---0-|
D|-2-2---2---2-4-4-5-5---5---5-5-5-----------------5-5----------|

Chorus
======

G|-----------------------------------------------------------------|
D|-----------------------------------------------------------------|
A|-----------------00000---------------------------2-2-2-0---0-020-|
D|-00000---------------------------55555---------------------------|

G|---------------------------------------------------|
D|---------------------------------------------------|
A|-----------------00000---------------------------0-|
D|-00000---------------------------55555-------------|

Bridge
======

G|---------------------------------------------------|
D|---------------------------------------------------|
A|-2-------------------------------5---------------0-|
D|-----------------5---------------------------------|

G|---------------------------------------------------------------|
D|---------------------------------------------------------------|
A|-2-------------------------------0-----0-------0---------0---0-|
D|-----------------5---------------------------------------------|

Chorus
======

G|-----------------------------------------------------------------|
D|-----------------------------------------------------------------|
A|-----------------00000---------------------------2-2-2-0---0-020-|
D|-00000---------------------------55555---------------------------|

G|---------------------------------------------------------|
D|---------------------------------------------------------|
A|-----------------00000---------------------------2-2-2-0-|
D|-00000---------------------------55555-------------------|


Outro
=====

G|-----------------------------------------------------------------|
D|-----------------------------------------------------------------|
A|-----------------0-0-0-0-0-0-0-0-----------------2-2-2-2-0-0-0-0-|
D|-0-0-0-0-0-0-0-0-----------------5-5-5-5-5-5-5-5-----------------|
[x2]

G|-------------------------|
D|-------------------------|
A|-----------------2-----0-|
D|-00000-------------------|