The Red Hot Valentines - Everythings Fine Chords & Tabs

 

Everythings Fine Chords & Tabs

The Red Hot Valentines Chords & Tabs

Version: 1 Type: Tab 0 ratings
1 star 2 stars 3 stars 4 stars 5 stars
comments

Everythings Fine Tab

   
I was really bored one day so i picked up my guitarand the RHV cd and
went to work...it should be right...I hope....



E-------------------------
B-------------------------
G-4-4-4-------------------
D-4-4-4-6-6-6-4-4-4-2-2-2-
A-2-2-2-6-6-6-4-4-4-2-2-2-
e-------4-4-4-2-2-2-------
[ Tab from: http://www.guitartabs.cc/tabs/t/the_red_hot_valentines/everythings_fine_tab.html ]
E------------------------------------------------
B------------------------------------------------
G-2-2-2-------4-4-4-4-4-4-2-2-2------------------
D-2-2-2-2-2-2-4-4-4-4-4-4-2-2-2-2-2-2-2-2-2-2-2-2
A-------2-2-2-2-2-2-2-2-2-------2-2-2-4-4-4-4-4-4
e-------------------------------------4-4-4-4-4-4

E------------------------
B------------------------
G-4-4-4------------------
D-4-4-4-2-2-2-6-6-6-4-4-4
A-2-2-2-2-2-2-6-6-6-4-4-4
e-------------4-4-4-2-2-2
Comments