The Red Elvises - Love Pipe Chords & Tabs

 

Love Pipe Chords & Tabs

The Red Elvises Chords & Tabs

Version: 1 Type: Tab 0 ratings
1 star 2 stars 3 stars 4 stars 5 stars
comments

Love Pipe Tab

#----------------------------------PLEASE NOTE---------------------------------#
#This file is the author's own work and represents their interpretation of the #
#song. You may only use this file for private study, scholarship, or research. #
#------------------------------------------------------------------------------#
Artist: The Red Elvises
album: Live at the Great American Music Hall
song: Love Pipe
scales: Hungarian Minor
Tabbed by: Sequoi Fahey
Date: 12/13/04

Tab symbols
--3~~------------Vabrato on specified note
--9p8------------Pull off from the ninth fret to the eighth fret
--8h9------------hammer on to the ninth fret from the eighth fret
--2(3)-----------One-half bend; bend up one half-step (one fret)
--(3)2-----------Pre bend and releas, one half-step.
--2(4)-----------Full bend; bend one full-step (two frets)
--2/5------------Slide up form specified fret to other specifed fret
--5\2------------Slid down from specified from to other specified fret
--///15--or--/15-slide up from nowhere; slide up from unspecified point below the 15th fret   
--15\\\--or--15\-slide down to nowhere; slide down to unspecified point below the 15th fret
..PM.............Palm mute
  R              Rake; play note of ajasent string with oune pick motion


e|-0--------------|
b|-0--------------|
g|-1--------------|
d|-2--------------|
a|-2--------------|
e|-0--////12\\\\--|

e|----------------------------------------------------------------------|
b|----------------------------------------------------------------------|
g|-----------------------------------------------------------9---7/9~~--|
d|------8-9-8--------------8-9-8--------------8-9-8-----------9---------|
a|-7-10-------10-7~~--7-10-------10-6~~--7-10-------10-5~~--7--7--------|
e|----------------------------------------------------------------------|
							     /-repeat-2-X-\
e|-------------------------------------------------------------------|
b|-------------------------------------------------------------------|
g|---------------9~~----------------8~~--------------------9----9~~--|
d|------8-9-8--------------8-9-8--------------8-9-8---------9---9~~--|
a|-7-10-------10------7-10-------10------7-10-------10---7---7--7~~--|
e|-------------------------------------------------------------------|

  /---------------------Play twice----------------------\
e|------------------------------------------------------|
b|------------------------------------------------------|
g|------------------------------------------------------|
d|---------88-99---------88-9-----8-9-8h9p8-------------|
a|-77-10-10------77-10-10-----7-10----------10-7--------|
e|------------------------------------------------------|

e|------------------------------------------------------|
b|------------------------------------------------------|
g|---------88-99---------88-9-----8-9-8h9p8-------------|
g|-77-10-10------77-10-10-----7-10----------10-7--------|
a|------------------------------------------------------|
e|------------------------------------------------------|

e|------------------------------------------------------|
b|------------------------------------------------------|
g|------------------------------------------------------|
d|---------88-99---------88-9-----8-9-8h9p8-------------|
a|-77-10-10------77-10-10-----7-10----------10-7--------|
e|------------------------------------------------------|

e|-7--------------------------------------------------------|
b|---9-8----------------------------------------------------|
g|-------9-8-7--------------------------------9~------------|
d|-------------9-8--5h6p5--------------------9--------------|
a|------------------------7-6-5--------5-6-7----------------|
e|------------------------------7--6-7----------------------|
[ Tab from: http://www.guitartabs.cc/tabs/t/the_red_elvises/love_pipe_tab.html ]
e|--------------------------------------------------------|
b|--------------------------------------------------------|
g|--------------------------------------------------------|
d|--------------------------------------------------------|
a|---7-6/7--6h7p6-2h3p2-6-7~------7-6/7--6h7p6-2h3p2-3-~--|
e|-/8--------------------------/8-------------------------|

e|------------------------------------------------|
b|------------------------------------------------|
g|------------------------------------------------|
d|------------------------------------------------|
a|---7-6/7--6h7p6\2h3p2/3/6--777-666-333-222-000~-|
e|-/8---------------------------------------------|

			   R-\                                  R-\
e|-------12-11-12-11-------11-12-12-----------12-11-12-11--------------|
b|----13-----------13-12------------13-----13-----------13-12---/12~~--|
g|-14-------------------14--------------14-------------------14--------|
d|---------------------------------------------------------------------|
a|---------------------------------------------------------------------|
e|---------------------------------------------------------------------|

with this									    R----\
e|--------------------------------------------------------------------------------|
g|-11-12-13-12-11-12-13-12-11-12-13/15-13-12--13/15-13-12-------------------------|
g|-------------------------------------------------------13--------------------14-|
d|---------------------------------------------------------14-15-14-15-14-15-14---|
a|--------------------------------------------------------------------------------|
e|--------------------------------------------------------------------------------|

or sometimes this depending on the version
e|-------------------------------------------12-12-12-11-11-11-8-8-8-7-7-7-5-5-5-|
b|-11-12-13-12-11-12-13-12-11-12-13/15-13-12-------------------------------------|
g|-------------------------------------------------------------------------------|
d|-------------------------------------------------------------------------------|
a|-------------------------------------------------------------------------------|
e|-------------------------------------------------------------------------------|

or somtimes this depending on the version
					      /------play-this-faster-than-rest-------------\
e|---------11--------11--------11---------------------------------------------|
b|-11-12-13--13-12-13--12-11-12--13-12-13-12----------------------------------|
g|------------------------------------------14-13-14-13-----------------------|
d|-----------------------------------------------------15-14-15-14------------|
a|----------------------------------------------------------------15-14-15-14-|
e|----------------------------------------------------------------------------|

This speed decenging and assednign lick con be heard the second time around on the live CD verison
/---------------------and-this-too-----------------------\
e|-----------------------------------------------11-12~~-|
b|------------------------------------12-13-12-13--------|
g|-------------------------13-14-13-14-------------------|
d|--------------14-15-14-15------------------------------|
a|---14-15-14-15-----------------------------------------|
e|-16----------------------------------------------------|

outro
e|--------------------------7-7/10-10--7-7----------------------------0~~--|
b|----------------8-8--9-9-----------------9-9--8-8-------------------0~~--|
g|-7-7--8-8--9-9-------------------------------------9-9--8-8--7-7----1~~--|
d|--------------------------------------------------------------------2~~--|
a|--------------------------------------------------------------------2~~--|
e|--------------------------------------------------------------------0~~--|

This song is played slightly different in different version of the song but they are
just different combanations of the riffs above.
Comments