The Rakes - Strasbourg Chords & Tabs

 

Strasbourg Chords & Tabs

The Rakes Chords & Tabs

Version: 3 Type: Tab 0 ratings
1 star 2 stars 3 stars 4 stars 5 stars
comments

Strasbourg Tab

   
"Meet you in West Germany...
e-------------|
b-------------|
g-------------|
d-------------|
a-9--9--9--9--|
e-10-10-10-10-| x 4

...October 1983...."
e-------------|
b-------------|
g-------------|
d-------------|
a-10-10-10-10-|
e-10-10-10-10-| x 4
[ Tab from: http://www.guitartabs.cc/tabs/t/the_rakes/strasbourg_tab_ver_3.html ]
Chorus
  D       F     G         F
e-10-10/--1-1/--3-3-3-3/--1-1/---|
b-10-10/--1-1/--3-3-3-3/--1-1/---|
g-11-11/--2-2/--4-4-4-4/--2-2/---|
d-12-12/--3-3/--5-5-5-5/--3-3/---|
a-12-12/--3-3/--5-5-5-5/--3-3/---|
e-10-10/--1-1/--3-3-3-3/--1-1/---|
                          "Strasbourg"  x  4

GypsyKiss
Comments