The Raconteurs - Yellow Sun Chords & Tabs

 

Yellow Sun Chords & Tabs

The Raconteurs Chords & Tabs

Version: 1 Type: Tab

Yellow Sun Tab

   
-----------------------------------------------------------------------------
			     YELLOW SUN - The Raconteurs
-----------------------------------------------------------------------------
Tabbed by: Chapman Li (aka SonicYouthRules)
Email: chapman_li@hotmail.com

If you like, plz give me a rating! Thx






INTRO/VERSES

Main Riff

e|----------0-0-0-0---------------0-0-0-------------------------------------|
B|-2-2-2-xx-3-3-3-3----2-2-2--xx--3-3-3-------------------------------------|
G|-0-0-0-xx-2-2-2-2----0-0-0--xx--2-2-2-------------------------------------|
D|-2-2-2-xx------------2-2-2--xx--------------------------------------------|
A|--------------------------------------------------------------------------|
E|--------------------------------------------------------------------------|



Fill 1 (0:54)

e|--------------------------------------------------------------------------|
B|--------------------------------------------------------------------------|
G|--------------------------------------------------------------------------|
D|-------0-2-0------------0-2--4-2------------------------------------------|
A|--2-4--------4-2----2-4---------------------------------------------------|
E|--------------------------------------------------------------------------|


CHORUS (0:18) 
[ Tab from: http://www.guitartabs.cc/tabs/t/the_raconteurs/yellow_sun_tab.html ]
palm-mute these bits...

i.e. " you're making me hungry...."

e|--------------------------------------------------------------------------|
B|--------------------------------------------------------------------------|
G|--------------------------------------------------------------------------|
D|--------------------------------------------------------------------------|
A|-10-10-10-10-10--14-14-14-14-----1010101010--14-14-14-14------------------|
E|--8-8-8-8-8--8---12-12-12-12-----8-8-8-8-8---12-12-12-12------------------|

e|--------------------------------------------------------------------------|
B|--------------------------------------------------------------------------|
G|--------------------------------------------------------------------------|
D|--------------------------------------------------------------------------|
A|--101010101010--12-12-12-12--7-7-7-7-7-7----------------------------------|
E|--8-8-8-8-8-8---10-10-10-10--5-5-5-5-5-5----------------------------------|

back to Fill 1

then back to Main Riff for Verse

then back to CHorus Riffs (can play full chords)

back to Main Riff ("it's not sunny anymore... " part etc)


| /  slide up
| \  slide down
| h  hammer-on
| p  pull-off
| ~  vibrato
| +  harmonic
| x  Mute note
============================================================================