The Raconteurs - Steady As She Goes Chords & Tabs

 

Steady As She Goes Chords & Tabs

The Raconteurs Chords & Tabs

Version: 3 Type: Tab

Steady As She Goes Tab

   
There one tab on here but its slightly wrong so i thought i'd re write it and add
the lyrics for all who was interested.

| /  slide up
|   slide down
| h  hammer-on
| p  pull-off
| ~  vibrato
| +  harmonic
| x  Mute note


Standard Tuning.
Slight distortion

Intro
e|-----------------|
B|-----------------|
G|-7~--7~--6~--4~--|
D|-----------------|
A|-----------------|
E|-----------------|


Verse:
e|----------------------|
B|---4---------2----0---|
G|---4---------2----1---|
D|---4----4----2----2---|
A|--------4-------------|
E|--------2-------------|
This is played normally for the first 30 seconds then jack white changes the timing
very slightly, he groups the first 2 notes and the second 2 notes in the verse together.

Theres also a few muted notes at certain points in the verses, i just strum once/twice
while changing hand posistion to create the muted notes.

[ Tab from: http://www.guitartabs.cc/tabs/t/the_raconteurs/steady_as_she_goes_tab_ver_3.html ]
Into the Chorus
'Steady as she goes'
e|----------------------------------|
B|----------------------------------|
G|---4-4-4-----------2-2-2----------|
D|---4-4-4---4-4-4---2-2-2---2-2-2--|
A|---2-2-2---4-4-4---0-0-0---2-2-2--|
E|-----------2-2-2-----------0-0-0--|

'Well here we go again'
e|------------------------------------------------------|
B|------------------------------------------------------|
G|--------------------2-2-2-2-2-2-2-2--4-4-4-4-4-4-4-4--|
D|---5-5-5-5-5-5-5-5--2-2-2-2-2-2-2-2--4-4-4-4-4-4-4-4--|
A|---5-5-5-5-5-5-5-5--0-0-0-0-0-0-0-0--2-2-2-2-2-2-2-2--|
E|---3-3-3-3-3-3-3-3------------------------------------|

THEN

e|------------------------------------------------------|
B|------------------------------------------------------|
G|--------------------2-2-2-2-2-2-2-2-------------------|
D|---5-5-5-5-5-5-5-5--2-2-2-2-2-2-2-2--2-2-2-2-2-2-2-2--|
A|---5-5-5-5-5-5-5-5--0-0-0-0-0-0-0-0--2-2-2-2-2-2-2-2--|
E|---3-3-3-3-3-3-3-3-------------------0-0-0-0-0-0-0-0--|