The Raconteurs - Steady As She Goes Chords & Tabs

 

Steady As She Goes Chords & Tabs

The Raconteurs Chords & Tabs

Version: 1 Type: Tab 2 ratings
1 star 2 stars 3 stars 4 stars 5 stars
comments

Steady As She Goes Tab

Artist:The Raconteurs
Song:Steady As She Goes



    Intro

E)--------------------|
B)--------------------|
G)---7~--7~--6~--4~---|
D)--------------------|
A)--------------------|
E)--------------------|

   
   Verse
 
E)----------------|
B)----------------|
G)----------------|
D)--4-----2-------|
A)--2--4--0--2----|
E)-----2-----0----|


   Chorus

E)---------------|
B)---------------|
G)---------------|
D)--44----22-----|
A)--22-44-00-22--|
E)-----22----00--|

  Chorus II
[ Tab from: http://www.guitartabs.cc/tabs/t/the_raconteurs/steady_as_she_goes_tab.html ]
E)---------------|  |------------------|
B)---------------|  |------------------|
G)---------------|  |------------------|
D)--44----22-----|  |-------2222-4444--|
A)--22-44-00-22--|  |--5555-0000-2222--|
E)-----22----00--|  |--3333------------| 



    Fill

E)--15-14-12-----12-----------|
B)-----------15-----15-14-12--|
G)----------------------------|
D)----------------------------|
A)----------------------------|
E)----------------------------|



Order


Intro x2
Verse x5
ChorusI x2
Verse x5
Chorus II x2
Verse x5
Intro x1
ChorusII x2
verse+Fill x5
ChorusII+Fill x8



Comments