The Prom Kings - Bleeding Chords & Tabs

 

Bleeding Chords & Tabs

The Prom Kings Chords & Tabs

Version: 1 Type: Tab 0 ratings
1 star 2 stars 3 stars 4 stars 5 stars
comments

Bleeding Tab

   
This is my first tab.....its fairly close....I write it different.....if the note is
higher than the tenth fret I start useing letters...its a little less confusing for
some beginners I think. IF you find Somthing please help....I love the song and I only
tabed it so i have a base to work with.


A-10
B-11
C-12
D-13
E-14
F-15
G-16
H-17

/ -Slide
h -hammer-on
~ -tremo
x - Palm-Mute Note Before


Guitar 1
D-------------------------------------------| x5
A-------------------------------------------|
F-------------------------------------------|
C---4-5--4---4-5--4---4-5--4---4h5-4h5-4h5--|
G-------------------------------------------|
C-------------------------------------------|


Guitar 2
F-------------------------------------------| x6
C-------------------------------------------|
G-------------------------------------------|
C-AA-A-AAA-77-7-777-22-2-2--99/55-5---2--2--|


Guitar 1
D----------------------------------------|
A----------------------------------------|
F----------------------------------------|
C---4-5--4---4-5--4---4-5--4---4h5-4h5---|
G----------------------------------------|
C----------------------------------------|

HEAVY DISTORTION

D---------------------------------|
A---------------------------------|
F---------------------------------|
C-A--7--2-95-A--7--2-59-A--7--2---|
G-A--7--2-95-A--7--2-59-A--7--2---|
C-A--7--2-95-A--7--2-59-A--7--2---|


D------------------------------|
A------------------------------|
F------------------------------|
C-A--7--2-95-A--7--2-59-A--7---|
G-A--7--2-95-A--7--2-59-A--7---|
C-A--7--2-95-A--7--2-59-A--7---|


D--------------------------------| x3
A--------------------------------|
F--------------------------------|
C-222/00000000-555/77777777------|
G-222/00000000-555/77777777------|
C-222/00000000-555/77777777------|

D-------------------|
A-------------------|
F-------------------|
C-AAAAAAAA-CCCCCCCC-
G-AAAAAAAA-CCCCCCCC-
C-AAAAAAAA-CCCCCCCC-

GUITAR 1

D---------------------------------------| X2
A---------------------------------------|
F---------------------------------------|
C--AA------77--------22------57-----55--|
G--AA------77--------22------57-----55--|
C--AA------77--------22------57-----55--|

GUITAR 2

D-------------------------------------------| X2
A-------------------------------------------|
F-------------------------------------------|
C---4-5--4---4-5--4---4-5--4---4h5-4h5-4h5--|
G-------------------------------------------|
C-------------------------------------------|

GUITAR 1

D------------------------------------------| X2
A------------------------------------------|
F------------------------------------------|
C---4-5--4---4-5--4---4-5--4---4h5-4h5-4h5-|
G------------------------------------------|
C------------------------------------------|

GUITAR 2
[ Tab from: http://www.guitartabs.cc/tabs/t/the_prom_kings/bleeding_tab.html ]
D--------------------------------------| X2
A--------------------------------------|
F--------------------------------------|
C----E-E-E---H-H-H---E-E-E----EhH-EE---|
G--------------------------------------|
C--------------------------------------|

GUITAR 1

D----------------------------------|
A----------------------------------|
F----------------------------------|
C---A--7--2-95-A--7--2-59-A--7--2--|
G---A--7--2-95-A--7--2-59-A--7--2--|
C---A--7--2-95-A--7--2-59-A--7--2--|


D----------------------------------|
A----------------------------------|
F----------------------------------|
C--95-A--7-------------------------|
G--95-A--7-------------------------|
C--95-A--7-------------------------|EEEEEEEEEE/FFFFF/HHHH

D--------------------------------| x3
A--------------------------------|
F--------------------------------|
C-222/00000000-555/77777777------|
G-222/00000000-555/77777777------|
C-222/00000000-555/77777777------|

D-------------------|
A-------------------|
F-------------------|
C-AAAAAAAA-CCCCCCCC-
G-AAAAAAAA-CCCCCCCC-
C-AAAAAAAA-CCCCCCCC-

D-----------| x2
A-----------|
F-----------|
C--5h77-7---|
G--5h77-7---|
C--5h77-7---|

D--------------------------------| x3
A--------------------------------|
F--------------------------------|
C-222/00000000-5h77-7-5h77-7-----|
G-222/00000000-5h77-7-5h77-7-----|
C-222/00000000-5h77-7-5h77-7-----|

D-------------------|
A-------------------|
F-------------------|
C-AAAAAAAA-CCCCCCCC-
G-AAAAAAAA-CCCCCCCC-
C-AAAAAAAA-CCCCCCCC-


D----------------------------------| x3
A----------------------------------|
F----------------------------------|
C-222/00000000-555/77777777--------|
G-222/00000000-555/77777777--------|
C-222/00000000-555/77777777--------|

D---------------|
A---------------|
F---------------|
C-AAAAAAAA-C~~~-
G-AAAAAAAA-C~~~-
C-AAAAAAAA-C~~~-


D-------------------| x3
A-------------------|
F-------------------|
C--5h77-7-5h77/5h77-|
G--5h77-7-5h77/5h77-|
C--5h77-7-5h77/5h77-|


D---------------------|
A---------------------|
F---------------------|
C--5h77-7-5h77-5x5x-7-|
G--5h77-7-5h77-5x5x-7-|
C--5h77-7-5h77-5x5x-7-|

D---------------------------------------|
A---------------------------------------|
F---------------------------------------|
C--5h77-7-5h77/5h77--5h77-7-5h77-5x5x-7-|
G--5h77-7-5h77/5h77--5h77-7-5h77-5x5x-7-|
C--5h77-7-5h77/5h77--5h77-7-5h77-5x5x-7-|

D-----------------------------------|
A-----------------------------------|
F-----------------------------------|
C--5h77-7-5h77/5h77--5h77-7-5h77--7-|
G--5h77-7-5h77/5h77--5h77-7-5h77--7-|
C--5h77-7-5h77/5h77--5h77-7-5h77--7-|

D---------------------------------------|
A---------------------------------------|
F---------------------------------------|
C--5h77-7-5h77/5h77--5h77-7-5h77-5x5x-7-|
G--5h77-7-5h77/5h77--5h77-7-5h77-5x5x-7-|
C--5h77-7-5h77/5h77--5h77-7-5h77-5x5x-7-|

D------------------------------------|
A------------------------------------|
F------------------------------------|
C--5h77-7-5h77/5h77--5h77-7-5h77-555-|
G--5h77-7-5h77/5h77--5h77-7-5h77-555-|
C--5h77-7-5h77/5h77--5h77-7-5h77-555-|
Comments